John Mayer

Belief (ver.2)

John Mayer

tabs

by  - KEPLER -

save to print version add songbook text version e-mail correct tuner
chordsukulelecavacokeyboardtabbassdrumsharmonicaflute Guitar Pro
close

there isn't a video lesson for this song

chords

Belief (ver.2)

	  		Main Riff 
E|-------------------x-x-----------------x-x---------------------x-x---| 
B|-------------------x-x-----------------x-x---------------------x-x---| 
G|-------------------x-x-----------------x-x---------------------x-x---| 
D|---15---15---14-14-x-x---12---12-10-10-x-x---------------------x-x---| 
A|/12---12-----------x-x-10---10---------x-x---13---13-12-12-----x-x---| 
E|-------------------x-x-----------------x-x-12---12-------------x-x---| 
 
E|----------------------| 
B|----------------------| 
G|----------------------| 
D|---15---15---/17-17---| 
A|/12---12--------------| 
E|----------------------| 
 
Main riff 2 
E|--------------------x-x--------------------x-x---------------------x-x---| 
B|--------------------x-x--------------------x-x---------------------x-x---| 
G|---15---15-14-14-12-x-x---14---14-12-12----x-x----12----12-12------x-x---| 
D|/12---12------------x-x-12---12---------15-x-x-12----12-------15---x-x---| 
A|--------------------x-x--------------------x-x---------------------x-x---| 
E|--------------------x-x--------------------x-x---------------------x-x---| 
 
E|------------------------| 
B|------------------------| 
G|-------------------14---| 
D|/12-15-12-15-14-12------| 
A|------------------------| 
E|------------------------| 
 
Other Riffs (Before Solo) 
E|-----------------------------| 
B|-----------------------------| 
G|--------------------/14-12---| 
D|----------12-----------------| 
A|/12-15-12----/12-------------| 
E|-----------------15----------| 
 
E|-----------------------------| 
B|-----------------------------| 
G|--------------------/10------| 
D|----------12------------12---| 
A|/12-15-12----/12-------------| 
E|-----------------15----------| 
 
E|--------------------------------------------| 
B|--------------------------------------------| 
G|-/15-14-12-14-15-----12-14-------12-14------| 
D|-----------------15--------14-15-------12---| 
A|--------------------------------------------| 
E|--------------------------------------------| 
 
Solo - With light overdrive (Not perfect but i tried my best!) 
E|-----------------------------------------------------------------------| 
B|/15--------------------------------------------------------------------| 
G|----12-12-12-14-14-14-17-14-12-14--------------------------------------| 
D|----------------------------------15-12-------------------12-15-12-----| 
A|----------------------------------------15----------12-15--------------| 
E|-------------------------------------------13-15-13--------------------| 
 
E|-----------------------------------------------------------------------| 
B|-----------------------------------------------------------------------| 
G|-------------------------------14-14-14-------12-12h14-12----12--------| 
D|----12-12-12-------------------12-12-12-12-15-------------15----15-15--| 
A|-15----------15-------------12-----------------------------------------| 
E|----------------15-15-15-15--------------------------------------------| 
 
E|----------13----------------| 
B|----13-15----15-13-15-15----| 
G|-14-------------------------| 
D|----------------------------| 
A|----------------------------| 
E|----------------------------| 
 
After Solo 
E|---------------------------------------------| 
B|----------------------13---------------------| 
G|-12-------------12h14----12-/14--------------| 
D|----14-15-12-12-----------------15-15-12-----| 
A|---------------------------------------------| 
E|---------------------------------------------| 
 
E|-----------------------| 
B|-----------------------| 
G|-14-14-----------------| 
D|-------12--------------| 
A|----------12-----------| 
E|-------------15-15-----| 
 
h- hammer-on 
/- slide 

		  

See also:

tabs Guns N' Roses - Welcome to The Jungle tabs Guns N' Roses - Knockin' On Heaven's Door tabs 3 Doors Down - When I'm gone tabs Guns N' Roses - Don't Cry tabs Cheap Trick - The Flame tabs Aerosmith - Dream On
e-chords

Other versions:

tabs John Mayer - Belief tabs Arcane Roots - Belief tabs John Mayer - Belief (ver.2) tabs We Came As Romans - Beliefs
auto scroll beats size up size down change color hide chords drawings
tab show chords e-chords YouTube Clip e-chords hide all tabs e-chords go to top tab

share