John Frusciante

Skin Blues Tab

John Frusciante

Difficulty: nolevelnolevel

tuner correct add songbook print version text version save to e-mail
chordsukulelecavacokeyboardtabbassdrumsharmonicsflute Guitar Pro
close

there isn't a video lesson for this song

chords

Skin Blues

  		 
                                                  x4 
e|------------|-------------|-----------------------|---------------------------| 
B|---------5--|----------3--|-----------------------|---------------------------| 
G|------5--5--|-------3--3--|-----------------------|---------------------------| 
D|---4-----5--|----2-----3--|--2----2----2----2-----|---------------------------| 
A|-5----------|--3----------|--2--2----2----2----2--|---------------------------| 
E|------------|-------------|-----------------------|---------------------------| 
e|--------------------------------------------------|---------------------------| 
B|--------------------------------------------------|-5--5-5-3--3-3-3--5--5-5-3-| 
G|--------------------------------------------------|---------------------------| 
D|-------------5---5--------------------------------|---------------------------| 
A|-------------5---5----5-2-5-4-------4------4---4--|---------------------------| 
E|-0-1-2-3---3---3---3-----------5--5----5-5---5----|---------------------------| 
          =============== x3  =============== x2   =============== x2        
e|-----------------2-------------------1--------------------0-------------------| 
B|-3-3-3----4--3-4----4-3-4-----3--2-3----3-2-3------3--2-3----3-1-3------------| 
G|------------------------------------------------------------------------------| 
D|------------------------------------------------------------------------------| 
A|------------------------------------------------------------------------------| 
E|------------------------------------------------------------------------------| 
=============== x2   
e|--------3-------------------3----------|------4-------------------------------| 
B|-5--3-5----5-3-5-----5--3-5---5-5-5-5--|--5-6---6-5-6-53---2-3-3/5-3-2-3-----| 
G|---------------------------------------|--------------------------------------| 
D|---------------------------------------|--------------------------------------| 
A|---------------------------------------|--------------------------------------| 
E|---------------------------------------|--------------------------------------| 
e|--------------------------------0-----0---------------------------------------| 
B|-3--3-5-6-5-3------3--3--3------1-----1---------------------------------------| 
G|------------------------------------------------------------------------------| 
D|------------------------------------------------------------------------------| 
A|----------------2------------3-----4------------------------------------------| 
E|------------------------------------------------------------------------------| 
  repita o riff principal com variações             solo final: 
e|--5/6-----3-------------0--------------------3//5--3-0---12-11-12-11----10----| 
B|---------------5-4-5--1----------------------------------------------12----12-| 
G|--------------------------2---------------4-----------------------------------| 
D|-----------------------------2------2-4-5-------------------------------------| 
A|------------------------------------------------------------------------------| 
E|------------------------------------------------------------------------------| 
e|--0-------5--0----------------------------------------------------------------| 
B|-----1-3----------------------------------------------------------------------| 
G|------------------------------------------------------------------------------| 
D|------------------------------------------------------------------------------| 
A|------------------------------------------------------------------------------| 
E|------------------------------------------------------------------------------| 
 
_______________________________________________________ 
Contribuição: André Costa Parreira(John Frusciante)([email protected]) 
	  

auto scroll beats size up size down change color hide chords drawings
tab show chords e-chords YouTube Clip e-chords hide all tabs e-chords go to top tab

share with facebook

Search Paypal