John Carpenter

Halloween Theme Song

John Carpenter

tabs Advanced advanced

by  SF49ERSCBW

save to print version add songbook text version e-mail correct tuner
chordsukulelecavacokeyboardtabbassdrumsharmonicaflute Guitar Pro
close

there isn't a video lesson for this song

chords

Halloween Theme Song

	  		Instrument: Guitar 

Tabbed by: forrest redden ([email protected]) 

Tuning: Standard (E A D G B E) 

have fun 


E|-------------------------------------------------------------------|| 
B|-------------------------------------------------------------------|| 
G|-12-------12-------12----13----12-----------10-----10-----10---11--|| 
D|----10-10----10-10----10----10----10-----------8-8----8-8----8----8|| 
A|-------------------------------------------------------------------|| 
E|-------------------------------------------------------------------|| 

E|-------------------------------------------------------------------|| 
B|-------------------------------------------------------------------|| 
G|--10---------------------------------------------------------------|| 
D|-----8-------------------------------------------------------------|| 
A|-------------------------------------------------------------------|| 
E|-------------------------------------------------------------------|| 

Just keep progressing all the way 2 frets at a time 

		  

Full key step upFull key step up
Half key step upHalf key step up
Half key step downHalf key step down
Full key step downFull key step down
hide glossary

See also:

tabs Clint Mansell - An End Once And For All tabs Howard Shore - Concering Hobbits tabs Gustavo Santaolalla - The Wings tabs FLCL - Sad Sad Kiddie tabs John Carpenter - Halloween Theme Song tabs FLCL - Ride On Shooting Star
e-chords

Other versions:

tabs John Carpenter - Halloween Theme Song
auto scroll beats size up size down change color hide chords drawings
tab show chords e-chords YouTube Clip e-chords hide all tabs e-chords go to top tab

share