Johann Sebastian Bach

home > Johann Sebastian B...

Theme From Brandenburg Concerto - 2 In F Major Tab

Johann Sebastian Bach

Difficulty: nolevelnolevel

by alexribeiro

tuner correct add songbook print version text version save to e-mail
chordsukulelecavacokeyboardtabbassdrumsharmonicsflute Guitar Pro
chords

Theme From Brandenburg Concerto - 2 In F Major

  		Fret position shown above staff. 
 Finger selection shown below staff. 
/  = slide up/down 

E|-----|----------------------------|----------------------------| 
B|--3--|-------------------3-----3--|-------------------3-----3--| 
G|-----|--2----0-2----0-2-----2-----|--2----0-2----0-2-----2-----| 
D|-----|-----4---0--4---------0-----|-----4---0--4---------0-----| 
A|-----|----------------------------|----------------------------| 
D|-----|--0-------------0-----------|--0-------------0-----------| 
     2     1  3   1  3   1  2  1  2 

E|--0---0-2-3-2-3-2-0---------------|--0---0-2-3-2-3-2-0---------------| 
B|----3---------------3-2-0---3-2-3-|----3---------------3-2-0---------| 
G|--------------------------2-------|--------------------------2-0-----| 
D|----------2-----------------------|----------2-------------------4-2-| 
A|--0---------------0-------4-------|--0---------------0-------4-------| 
D|----------------------------------|----------------------------------| 
      3   2 4 2 4 2   3 2   1 2 1 2                            1   4 1 
            1               3                                  3 

E|------------------------------|------------------------------| 
B|-------------------3----------|-------------------3----0-2-3-| 
G|------------2-0-------2-0-----|------------2-0-------2-------| 
D|--0--4-2-0------4---------4-2-|--0--4-2-0------4-------------| 
A|----------------0-------------|----------------0-------------| 
D|--4------0------------0-------|--4------0------------0-------| 
    3  4 1    1   3  2  1   3 1    3                   1   2 3 

E|--0-2-3-0-2-------0-2-3-0-2---5--|--3-2-0------------------|| 
B|------------3---3-----------3----|--------3----2/-3--------|| 
G|--------------2------------------|------0---2--0-----------|| 
D|----------0---------------0------|--2-------------4--------|| 
A|--0---------------0--------------|----------0--------------|| 
D|---------------------------------|----------------0--------|| 
      2 3   2 3 1 3   1 2   1 2 4     3 2   2 1  1  1 
                                      1             2 
	  

Search Paypal
auto scroll beats size up size down change color hide chords drawings
tab show chords e-chords YouTube Clip e-chords hide all tabs e-chords go to top tab