Johann Sebastian Bach

home > Johann Sebastian B...

Sonata For Flute And Basso Continuo No 2 In Em, Allegro (1) Tab

Johann Sebastian Bach

Difficulty: nolevelnolevel

by alexribeiro

tuner correct add songbook print version text version save to e-mail
chordsukulelecavacokeyboardtabbassdrumsharmonicsflute Guitar Pro
chords

Sonata For Flute And Basso Continuo No 2 In Em, Allegro (1)

  		1 
E|-----0-2-3--5-3-2--7-----5--|---------0--2-0----3-----5--| 
B|----------------------5-----|--3--1-3--------3-----------| 
G|----------------------------|--0-------------0-----5-----| 
D|---------2------0-----------|----------------------4-----| 
A|----------------------3-----|--2------3------2-----0-----| 
E|--0-------------------------|----------------------------| 

3 
-------------------0--------|--0--------------------------| 
--0----0-1--3-1-0--------4--|-----3-1-0-------------------| 
--0--2----------------2-----|------------2--0--2-0--------| 
--0-------------------------|----------------------4--2-4-| 
---------0------------------|------------0--2------2------| 
--3-------------3-----2-----|--0--2---3-------------------| 

5 
-------------------------7------|------------10-------9--------------| 
--------------0-2-3--0----------|----10-8-10----8-7-8---7-5-7-8------| 
--0-------0-2-------------------|------------------------------------| 
----4-2-4----------------0----0-|------------------------------------| 
---------------------2-4----7---|-------9---------7---0--------------| 
--0-----------------------------|--9---------7----------------7--9-7-| 

7 
----------7-------5-------0------|----------3-----------------0-2-3-| 
----7-5-7---5-3-5---3-2-3--------|----3-2-3---2-0-2-3-2-0-2-3-------| 
---------------------------------|----------------------2-0---------| 
------0-------2------------------|--------------------------4---2---| 
--0------------------------------|------2-------1---2---------------| 
----------3-------2-------3--5-3-|--2-------0-----------------------| 

9 
-----7---0--6---7---------------|----------5--------------3------| 
--7-----------------0-------3---|----1-0-1--------0---0-3--------| 
------------------------------0-|--2---0-------5----3-0----------| 
--0----0-4------0-------0-2-4---|----------4-2-4--------4-2--1-2-| 
-----7------2-4---4-2-4---------|--------------------------------| 
--------------------------------|--------------------------------| 

11 
----------2-------------0------|----------0---0---0-------0---0---| 
----------------------0--------|----1-0-----1-------0-------0-----| 
----2-0-2----2--0---0---0----0-|--2-----2-------2-----2-0-------0-| 
--4---2---1-------4-2-4----4---|----------------------------------| 
-------------2-----------------|--0-------------------------------| 
-------------------------------|----------2-------3-------0-------| 

13 
--0-------0---0---0---------------|--------------0---3-2-0---7-------| 
------------------------------0---|--3-1-0---4-------------4---------| 
----2-0-----2-------0-----2-------|--------2---2---2-----------------| 
--------4-------4-----4-2---2---2-|----------------------------------| 
--3-------0---------------3---2---|--0---------------2---------0-----| 
------------------0---------------|------3---2---0---------------3-2-| 

15 
-----0-2-3-0-----0-----------|------0---------------0-----------| 
---------0---0-4-------------|----0---0-----------0---0---------| 
-----0-2---------------------|--0-------0-------0-------0-------| 
--------------------2----2-4-|------------2-1-2-----------2-1-2-| 
-------------2---------------|----------------------------------| 
--3--------------0-----------|------0---------------0-----------| 

17 
------2---------------2-----------|------3---------------3-----------| 
----4---4-----------4---4---------|----5---5-----------5---5---------| 
--2-------2-------2-------2-------|--4-------4-------4-------4-------| 
------------2-1-2-----------2-1-2-|------------2-1-2-----------2-1-2-| 
----------------------------------|----------------------------------| 
------0---------------0-----------|------0---------------0-----------| 

19 
--------------0-2-3-0-2-----7-6-7-|--2-------2-5-3-5-2-------2-0---0-| 
--------0-2-4---------------------|----4---4-----------4---4-----4---| 
----0-2---------------------------|------4---------------4-----------| 
--4-------------------------------|----------------------------------| 
--0---------------2---2-4-6---7---|------2---------------2-----------| 
------3---2---0-------------------|----------------------------------| 

21 
----------------------------5-4-5-|--0-------0-3-2-3-0-------0-------| 
--0-------0-3-1-3-0-------0-------|----2---2-----------2---2---3-2-3-| 
----1---1-----------1---1---------|------2---------------2-----------| 
------2---------------2-----------|----------------------------------| 
----------------------------------|------0---------------0-----------| 
------0---------------0-----------|----------------------------------| 

23 
----------------------------3-2-3-|------------3-2-3---5-2-5---3-0-3-| 
------------1-0-1-----------------|--3-------3-------2---3---0---2---| 
--2-------2-------2-------2-------|----4---4-4-------2-------0-------| 
----4---4-----------4---4---------|------5---------------------------| 
------5---------------5-----------|----------------------------------| 
----------------------------------|------0---------------------------| 

25 
-----------0-2-3-5-2---2-3-0---0-|--2------------------------------| 
-----3---------------3-------2---|-----0-----3-1---0-3-0-----1-----| 
--2------0-----------4-------2---|---------------2-------0-2---2---| 
--4--2-4---------4-------2-------|--0----0-2-------0-------------4-| 
---------------------------------|-----4-------------------4---5---| 
---------------------------------|---------------------------------| 

27 
-------------0-2-3--2-0-------|------------------------0-2--3-2-| 
--0-2-3-----------------3--1--|--0-------------------3------3---| 
--0---------------------------|------0-----------------0-2------| 
------4-2-0-------------0--4--|--------------0-2-4-2-4----------| 
-------------4---2--4------5--|--------0-2-4--------------------| 
------------------------------|--3-2-3--------------------------| 


29 
--0---5-------3-------------0---|------2-------3-----------------| 
--2-------3-------1--0-1-3----3-|--2-------0--------------0--1-0-| 
----2---2-4-----0-2---------0---|--2-------0-------2--0-2--------| 
------4-----5-2----------4------|----4---4---2---2-4--2---0--2---| 
--------------------------------|------5-------4-----------------| 
--------------------------------|--------------------------------| 

31 
-------------------------------|--------------------------1---| 
------3-------2---3--1-0-------|-----3-----2--3-------------0-| 
--2-------0-----0--------2--0--|------------------------1-2---| 
--4-----0-2-------4--2---4-----|--4-----2-----4---0-2-4-------| 
----5-2-----4-0----------------|--0-----0-----5-4-------------| 
----------------------------3--|-----3------------------------| 

33 
----0---0-7-------------0--------|----------2---------------0-2-3--| 
------3-------3---1-0-1-----0-1--|----0---0---------------0--------| 
------4---------0-2---0---2------|------2-------2---0---0----------| 
--1-----------4-----------4---2--|--1-------------0---4-0----------| 
------------7--------------------|------------2-4---7-------4---2--| 
---------------------------------|---------------------------------| 

35 
----2-0-2-9---0-----------7-----|----------7---7---7-------7---7---| 
------------------------7-------|----8-7-5---8---5---7-5-----7-----| 
----------------3-7-6-7---------|------------------------7-------7-| 
--------------6---9---7---5--4--|------------------0---------------| 
--1---4-----9-------------------|--7-------------------------------| 
--------------------------------|----------9---------------7-------| 

37 
--7-------7---7---7-------0---2---|--5-3-2-0-6---7---10-9-------14---------| 
----5-------5-----------0---0---0-|------------5---5------12-10------------| 
------7-6-------6---7-6---0-------|--------------------------------9-------| 
--5---------------9---7-------4---|--2---0---------------------------12-11-| 
----------7-----------------------|----------4-------9---------------------| 
----------------------------------|--------------7-------------------------| 

39 
--------9-10---------7---------------|------7---------------7-----------| 
-----12------12-7-11---0-0-------0---|----7---7-----------7---7---------| 
--7----------------------2-0-------6-|--7-------7-------7-------7-------| 
-----------------------------4-2-0---|------------9-8-9-----------9-8-9-| 
----------9--------------------------|----------------------------------| 
---------------------7---------------|------7---------------7-----------| 

41 
------5---------------5-----------|------0---------------0-----------| 
----7---7-----------7---7---------|----0---0-----------0---0---------| 
--8-------8-------8-------8-------|--0-------0-------0-------0-------| 
------------9-8-9-----------9-8-9-|------------2-1-2-----------2-1-2-| 
----------------------------------|----------------------------------| 
------7---------------7-----------|------0---------------0-----------| 

43 
----------------------------------|------5---------------5-----------| 
------3---------------3-----------|----5---5-----------5---5---------| 
----4---4-----------4---4---------|--5-------5-------5-------5-------| 
--6-------6-------6-------6-------|------------7-6-7-----------7-6-7-| 
------------7-6-7-----------7-6-7-|------0---------------0-----------| 
------0---------------0-----------|----------------------------------| 

45 
------3---------------3-----------|--------10-------------------10-------------| 
----5---5-----------5---5---------|-----10----10-------------10----10----------| 
--6-------6-------6-------6-------|--11----------11-7-6-7-11----------11-7-6-7-| 
------------7-6-7-----------7-6-7-|--------0--------------------0--------------| 
------0---------------0-----------|--------------------------------------------| 
----------------------------------|--------------------------------------------| 

47 
--------8-------------------8-------------|--7------3---------2-0-2--3-2-| 
-----10---10-------------10---10----------|---------0--1-0----3------3---| 
--11---------11-7-6-7-11---------11-7-6-7-|-----0----------2-------------| 
--------0-------------------0-------------|-------7---------------0------| 
------------------------------------------|------------------------------| 
------------------------------------------|------------------------------| 

49 
--0------0----------------0---|------------------------------| 
-------------------3-1-3----3-|--1------1---------0---0--1-0-| 
-----0------2-0----4------4---|-------------------0-2----0---| 
-----2-4-5------4-------------|-----2---2--4-2-0-------------| 
-----------------------2------|-----4-5----------------------| 
------------------------------|-----------------------3------| 

51 
------------------2-------5-------|----------0-------3-------7-------| 
----1-0---4-1-0-----1-0-------0---|----0-------0-------0-------0-----| 
--2-----2-------2-------2---5---2-|--0---2-0-----2-0-----2-0-------0-| 
--5-------4-------1---------------|----------5-------2-----------7---| 
--------------------------2-------|----------------------------------| 
----------------------------------|--------------------------7-------| 

53 
------------------2-------5-------|--8----------------0--------| 
----------4-----------------------|--7---------0------------4--| 
----2-0-----2-0-----2-0-------0---|-------0------2-0-----------| 
--4-----4-------4-------4---7---4-|--7------7--1---2-----4-----| 
------------------3-------6-------|-----9----------------0--2--| 
----------------------------------|--0----------------3--------| 

55 
--0---------0-----------3-------|--2----------------------0-------| 
--0---------------3-2-3---1-0-1-|----0---0-1--------0---0---------| 
--0---------2-0-----4-----------|------2--------------2-----2-0-2-| 
-----2-4-5------4-------2-------|--0-------2--4-2-0---------------| 
--------------------------------|-------------------------3-------| 
--0-----------------------------|---------------------------------| 

57 
---------------------------------|-------------------------------| 
--3----------------------1-------|--0----------------------------| 
----0---0-2--------0---0---------|-------------------------2-----| 
------4------0-------4-----4-2-4-|----2-1-2-3--------2-1-2-1-----| 
--2-------3----3-2-------0-------|----------0--2-0------------0--| 
---------------------------------|--3--------------3-------2-----| 

59 
------------2-0-2-----------2-0-2-|------------3-2-3-----------3-2-3-| 
----------------------------------|--0-------0-------0-------0-------| 
----------2-------2-------2-------|----0---0-----------0---0---------| 
----4-1-4-----------4-1-4---------|------2---------------2-----------| 
--2---2---------------2-----------|------2---------------2-----------| 
----------------------------------|----------------------------------| 

61 
------------5-3-5-----------5-3-2-|--3-0---0-2-------0---------------| 
--1-------1-------1-------4-------|------1-----3-0-3---------3-------| 
----2---2-----------2---2-4-------|------2-------0-----2---2---0---0-| 
------4---------------4-----------|--2-------0-----------4-------2---| 
------2---------------2-------2---|------------------3-------2-------| 
----------------------------------|----------------------------------| 

63 
----5---5---3---3-----2-------0---|---------------------0-2-3--5-3-| 
------7-------5-------------------|--4---0-------------------------| 
--5---7---4---5---2-------0---0-2-|--4-5-4-2-----------------------| 
--7-------5-------4-1---1-2-4-----|----------5-4-2-1-2------2------| 
----------------------2-----------|--------------------------------| 
----------------------------------|------------------0-------------| 

65 
-----7-----5---------0--2-0-|-----3-----5----------------| 
--7-----5-----3--1-3--------|--3-----------0----0-1--3-1-| 
--------------0-------------|--0-----5-----0--2----------| 
--0-------------------------|--------4-----0-------------| 
--------3-----2------3------|--2-----0------------0------| 
----------------------------|--------------3-------------| 

67 
-----0--------0---------5--|--3--2-0-3-2-0---0----8----0-------| 
--0--------4-----4-2-0-----|---------------4---10---10-----0---| 
--------2------------------|-----------------------------5---5-| 
---------------------------|-----------------------------------| 
------------------------0--|--2--0---2---2---------------------| 
--3-----2-----0--2---3-----|-----------------8-----------------| 


69                                        trill 
--------------0-3-8--7---5-3-2-|--3-0---0-2-----0--------|| 
------------2-----7--------4---|------4---3-----0--------|| 
--3-0---0-3--------------------|----------------0--------|| 
------2-----------7------------|--2-------------2--------|| 
--4---------------6--------2---|----------0--2-----------|| 
-------------------------------|------3---------0--------|| 
	  

Search Paypal
auto scroll beats size up size down change color hide chords drawings
tab show chords e-chords YouTube Clip e-chords hide all tabs e-chords go to top tab