Johann Sebastian Bach

home > Johann Sebastian B...

Sonata For Flute And Basso Continuo No 2 In Em, Adagio Ma Non Tanto Tab

Johann Sebastian Bach

Difficulty: IntermediateIntermediate

by alexribeiro

tuner correct add songbook print version text version save to e-mail
chordsukulelecavacokeyboardtabbassdrumsharmonicsflute Guitar Pro
chords

Sonata For Flute And Basso Continuo No 2 In Em, Adagio Ma Non Tanto

  		p  = pull-off 
tr = trill 

1 
E|--------------------------------|----------0---3--------0---3-2-0-| 
B|-----0-------1--------0---------|--------0---0------0-1-----------| 
G|-------0---0----------------0---|--0---0------------------2-------| 
D|---------2--------1-2---4-7---4-|----2----------------------------| 
A|-------------0--2---4---6---2---|-----------------0---2---3---0---| 
E|--0--2---3----------------------|--0---2---3---0------------------| 

3                                                      tr 
-----------3-0---0----------0-|--2---5----3-5-2-3----5-5----3-5-| 
--4--0---------1--------1-4---|----0----------------------5-----| 
-----2--0------2---2----------|---------------------------------| 
-----------2-------5--4---2---|--1---4--1-------2--0------------| 
--2---------------------------|-------------2----------4--------| 
------------------------------|---------------------------------| 

5 
--7-----------------------------|-----7---5---3------5---3---2---| 
-----0--------------------------|--4----8---7---5-0----7---5---4-| 
--8----0-----0------2---0-------|--4--0--------------------------| 
---------7-4---2------4---2-4-1-|---------4---2---1------2-------| 
-----------------2--------------|--0-------------------------0---| 
--7-----------------------------|--------------------7-----------| 

7                                                      tr 
-----8----7---5-----2-3-0-2---0---|--------------------0------------| 
-------10---8---7-4---0-----4---1-|------0---0-------4--------------| 
--2-------0-------------0-2---0---|--1-2---2---0-2---------2--------| 
--4-------------------------4---2-|----------1-----4-----2---4----2-| 
-----6--------3---2---------------|--3---0-------2-------3---0--2---| 
----------------------------------|------------------3--------------| 

9 
-----7---0---8-------------8-7-5-|--7--10-7---7-12----7-9-12---12-10-9-| 
-------8---8--------7-10---------|----------8----------------7---------| 
------------------9------7-------|--0-----------0----------------------| 
--2-----------------7--------0---|---------------------------8---------| 
-------------7--9--------9-------|----------------------7---------9----| 
--0------------------------------|------------------9------------------| 

11 
--10--7---15------10-12-9-----------10---| 
---------------------------10----------7-| 
--------0----0---------------------------| 
------9--------11-------------7-0---9----| 
---------------------------9------9------| 
--7-------12------------12---------------| 

12 
--3-0-6-----7-6-7-9-10-12-----9--10-7-|--9------14-------------------------| 
---------------------------------7----|-----7------0-----------------------| 
------0-------0-----------9-----------|-------------------9----------------| 
------------7-------9--11---8-11------|-------8------8-11---12-------0---2-| 
--------7-4---------------------------|--9--9---11---------------4-2---4---| 
--------------------------------------|------------------------6-----------| 

14 
----------------0-3-2---0---2-0-3-|--7-6-10-2-3-0---------7---0-------| 
--------2-0-3-2-------3---3-------|------0----------2-------3---2-----| 
--0---3---------------0-------0---|---------------3-----------------3-| 
----4-2---0---2-----------4-------|--4--------2-------5-4---------4---| 
------------------1---------------|---------------4---5-------4---1---| 
----------------------------------|-----------------------------------| 

16                        tr 
------3-0-2---0---6-7---0--------|---------------5-------0---------| 
------------3---2-----0---2----0-|-----------------1-0-4-----------| 
---------------------------------|--4------0---5-----------2-------| 
--2-0-------------0---2---4------|--4--0-2---4---------------2-1-4-| 
--2------------------------------|--2--2-------0-------------------| 
-----------------------------2---|-----------------3-----------2---| 

18 
----------------10---0-4-5---------|--------0-----1------------1-0---| 
--------0-3---6----6-------3-----0-|--3-0-1-----1--------0-3-------3-| 
--2---0-----5----------------2-1---|----------2--------2-----0-------| 
----4-2-------0--------------------|---------------------0-----------| 
-------------------3-----------2---|--0-----------0--2-------2-------| 
--0--------------------------------|-----------------------------3---| 

20 
--0--3-0---0-5----0-2-5---5-3-2-|--3--15----8------------12--------------| 
---------1--------------0-------|--------12---10---7---0-------10----0---| 
--------------------2-----------|----------------7---5------12----11---7-| 
----------------4-------1-------|--2---------------------------------0---| 
--3----------3--------------2---|-----------0----9-------10----9---------| 
--------------------------------|-----0--------------3-------------------| 

22 
------8-0-1-----------------------|------------------0---------0---2-| 
------------3---0-3-1-------------|--1-0-------0---1---4---1-0---3---| 
----0---------1-------------0---2-|--------2-0---2-------2---0---2---| 
--7---7---0---2-------1-4-2---4---|--1---4---2---4-------4-----------| 
--7---------------0-----------0---|------6-----------2---------------| 
----------------------2---3-------|----------------------------------| 

24 
--5---3---8-----3-5-----------3---|------------0---0-2-3-5-----2-3-0-| 
----7---5-----------7-----------0-|--1---4-------4---------------0---| 
----------------------7-----------|----2-------------------2---------| 
--------------4---------0-----2---|--------------------2-4---1-4-----| 
--6---7-3-0---------0-------2-----|------3-0---0-3-------------------| 
------------8---------7---3-------|----------2-----------------------| 

26 
--2-----------7-------------------|--------2-0-3-2-5-----2-5-3-7-5-8-| 
----4-0---------------------------|--1-0-4-----------1-0-----0-------| 
--------------------0-------0---2-|------2---0---2-------5-------5---| 
--------1---2---4-7---0-4-2---4---|------------------1---------------| 
------2---4---6-------------------|----------------------------------| 
----------------------------------|----------------------------------| 

28                                                           tr 
--0---8-5-7-3-5-2---0-3-0-1---0---|--------------------0------------| 
----4-------------4---------3---1-|------1---0-------4--------------| 
----------------------------------|--1-2---2---0-2---------2--------| 
------4---------------2-----------|----------1-----4-----2---4----2-| 
--2-------6---2-----------0-------|--3---0-------2-------3---0--2---| 
------------------3-----------4---|------------------3--------------| 

30 
--0----------------|| 
--0----------------|| 
--0----------------|| 
--2----------------|| 
-------------------|| 
--0----------------|| 
	  

Search Paypal
auto scroll beats size up size down change color hide chords drawings
tab show chords e-chords YouTube Clip e-chords hide all tabs e-chords go to top tab