Johann Sebastian Bach

home > Johann Sebastian B...

Prelude, Cello Suite No 3 In C, Bwv 1009 Tab

Johann Sebastian Bach

Difficulty: AdvancedAdvanced

by alexribeiro

tuner correct add songbook print version text version save to e-mail
chordsukulelecavacokeyboardtabbassdrumsharmonicsflute Guitar Pro
chords

Prelude, Cello Suite No 3 In C, Bwv 1009

  		(3/4) 

 |       |       |        |       |       |        |       |       | 
|5---4-2-----------------|------------------------|------------------------| 
|--------5-3-2-----------|------------------------|0---------------0-2-3-0-| 
|--------------4-2-------|--------------------1-2-|--2-1-------1-2---------| 
|------------------2---2-|--------------0-2-4-----|------4-2-4-------------| 
|--------------------4---|0---------2-4-----------|------------------------| 
|------------------------|------------------------|0---------------4-------| 

 |       |       |        |       |       |        |       |       | 
|--------------------4-5-|7-5-----0-------7-9-107-|9-109-7-----------------| 
|2-3-2-0---0-2-3-5-7-----|----9-7---7-9-10--------|--------10109-7-5-3-2-0-| 
|--------2---------------|------------------------|------------------------| 
|------------------------|0-----------------------|------------------------| 
|0---------------4-------|--------7---------------|0-----------------------| 
|------------------------|----------------0-------|------------------------| 

 |       |       |        |       |       |        |       |       | 
|--4-5-7-9-7-------5-----|--------2---------------|--2-4-5-7-5-4-----4---4-| 
|------------109-7-----10|4-2-4-5---5-4-2---4---4-|--------------7-5---4---| 
|2-------------------9---|----------------4---2---|1-----------------------| 
|------------------------|------------------------|------------------------| 
|----------------6-------|2-----------------------|----------------4-------| 
|2-------------------9---|----------------4---2---|0-------------------7---| 

 |       |       |        |       |       |        |       |       | 
|------------------------|--0---4-5-4---0---2---2-|------------------------| 
|--0-----------0---2---2-|----7-------7---4---2---|0---0-2-4-2-0-----0---0-| 
|6---6-8-9-8-6---2---1---|------------------------|--2-----------2-1-------| 
|----------------4---2---|4-----------------------|----------------2---4---| 
|0-----------------------|6---------------2---0---|--------------------6---| 
|------------------------|------------------------|4-----------------------| 

 |       |       |        |       |       |        |       |       | 
|--------0-------7-5-4---|4-5-7-5-4---0-2-4-2-0---|--0---------------------| 
|--0-2-4---7-9-10------7-|----------7-----------3-|2---2---------0---------| 
|------------------------|------------------------|------3---1-3---6-7-9-6-| 
|2-----------------------|------------------------|--------4---------------| 
|4---------------6-------|------------------------|------------------------| 
|------------------------|0-----------------------|0---------------6-------| 

 |       |       |        |       |       |        |       |       | 
|--7-----------0---4-5---|4-7-4-----------4-5-7-4-|5-7-5-4-----------------| 
|----7---0-2-3---7-----7-|------6---4-6-7---------|--------7-----0---------| 
|7-----7-----------------|--------6---------------|----------7-6---2-1-----| 
|----------------0-------|----------------3-------|4-------------------4-2-| 
|------------------------|4-----------------------|------------------------| 
|7-----------------------|------------------------|------------------------| 

 |       |       |        |       |       |        |       |       | 
|----------------4-------|----------4-----4-7-5---|------4-------4-------4-| 
|----------2-3-----6-7---|------7-6-----6-------6-|7---7---7---7---7---7---| 
|----1-3-4-----4-------4-|----4-------6-----------|--5-------5-------5-----| 
|0-4-------------0-------|--6---------------------|------------------------| 
|------------------------|4-----------------------|4-----------------------| 
|------------------------|------------------------|------------------------| 

 |       |       |        |       |       |        |       |       | 
|5-----4-5-----4-5---4-5-|7---4-5-7---4-5-7-4-----|--5-------5-------5-----| 
|----7-------7-----------|--------------------6-4-|----7-6-7---7-6-7---7-4-| 
|--6-------6-------6-----|--6-------6-------------|6-----------------------| 
|------------------------|------------------------|------------------------| 
|4-----------------------|4-----------------------|4-----------------------| 
|------------------------|------------------------|------------------------| 

 |       |       |        |       |       |        |       |       | 
|--5-------5-------5-----|--4-------4-------4-----|----------------2-5-2---| 
|----7-6-7---7-6-7---7---|----6-4-6-------------0-|------2-------2-------2-| 
|5---------------------7-|4-----------7-6-7---6---|2---2---2---2-----------| 
|------------------------|------------------------|--4-------4-------------| 
|4-----------------------|4-----------------------|------------------------| 
|------------------------|------------------------|2-----------------------| 

 |       |       |        |       |       |        |       |       | 
|----------------2-5-2---|------0-------0---7-4-0-|------0-------0---7---0-| 
|------2-------2-------3-|0---0---0---0---9-------|3---3---3---3-------9---| 
|2---2---2---2-----------|--1-------1-------------|--1-------1-----7-------| 
|--4-------4-------------|0-----------------------|------------------------| 
|------------------------|------------------------|------------------------| 
|2-----------------------|------------------------|0-----------------------| 

 |       |       |        |       |       |        |       |       | 
|------0-------0---7---0-|------0-------0-5-----0-|2-------0-2-4-5-7-------| 
|2---2---2---2---8---8---|2---2---2---2-----8-7---|--3-2-3-----------7---0-| 
|--2-------2-------------|--2-------2-------------|--------------------7---| 
|------------------------|------------------------|0-----------------------| 
|0-----------------------|0-----------------------|------------------------| 
|------------------------|------------------------|------------------------| 

 |       |       |        |       |       |        |       |       | 
|0---------0-2-4-5-0-----|------0-------0-------0-|------0-------0-------0-| 
|--2-0-2-3-----------2---|3---3---3---3---3---3---|3---3---3---3---3---3---| 
|----------------------2-|--4-------4-------2-----|--1---------------------| 
|------------------------|0-----------------------|----------4-------2-----| 
|4-----------------------|------------------------|------------------------| 
|------------------------|----------------2-------|0---------------4-------| 

 |       |       |        |       |       |        |       |       | 
|------------------------|----5-------5-----------|------------------------| 
|2-------2-------2-------|--2---2---2---2---5-3-2-|3-------3-------3-2-0---| 
|------------------4-2-1-|------------------------|----------------------2-| 
|--2---2---2---2---------|4-------4-------4-------|--4---4---4---4---------| 
|----0-------0-----------|------------------------|----2-------2-----------| 
|------------------------|------------------------|------------------------| 

 |       |       |        |       |       |        |       |       | 
|----7-------7-----------|------------------------|----9-------9-----------| 
|--4---4---4---4---7-5-4-|5-------5-------5-------|--5---5---5---5---8-7-5-| 
|------------------------|------------------7-6-4-|------------------------| 
|6-------6-------6-------|--6---6---6---6---------|7-------7-------7-------| 
|------------------------|----4-------4-----------|------------------------| 
|------------------------|------------------------|------------------------| 

 |       |       |        |       |       |        |       |       | 
|------------------------|----10------10----------|----10------10------10--| 
|7-------7-------7-------|--7---7---7---7---7-9-10|--9---9---9---9---9---9-| 
|------------------9-7-6-|------------------------|------------------------| 
|--7---7---7---7---------|9-------9-------9-------|------------------------| 
|----5-------5-----------|------------------------|------------------------| 
|------------------------|------------------------|0-------0-------0-------| 

 |       |       |        |       |       |        |       |       | 
|----9-------9-------9---|----7-------7-------7---|------------12----------| 
|--10--10--10--10--10--10|--10--10--9---9---7---7-|----12--------------12--| 
|------------------------|------------------------|--13--13--13--13--13--13| 
|------------------------|------------------------|------------------------| 
|------------------------|------------------------|------------------------| 
|0-------0-------0-------|0-------0-------0-------|0-------0-------0-------| 

 |       |       |        |       |       |        |       |       | 
|------------------------|------------10----------|------------------------| 
|----10------10------10--|----10--------------10--|----9-------9-------9---| 
|--13--13--11--11--9---9-|--11--11--11--11--11--11|--11--11--9---9---7---7-| 
|------------------------|------------------------|------------------------| 
|------------------------|------------------------|------------------------| 
|0-------0-------0-------|0-------0-------0-------|0-------0-------0-------| 

 |       |       |        |       |       |        |       |       | 
|------------9-----------|------------------------|------------7-----------| 
|----9---------------9---|----7-------7-------7---|----7---------------7---| 
|--9---9---9---9---9---9-|--9---9---7---7---6---6-|--7---7---7---7---7---7-| 
|------------------------|------------------------|------------------------| 
|------------------------|------------------------|------------------------| 
|0-------0-------0-------|0-------0-------0-------|0-------0-------0-------| 

 |       |       |        |       |       |        |       |       | 
|------------7-----------|----5-------9-------5---|------------7-----------| 
|----9---------------9---|------------------------|----9---------------9---| 
|--7---7---7---7---7---7-|--6---6---6---6---6---6-|--7---7---7---7---7---7-| 
|------------------------|------------------------|------------------------| 
|------------------------|------------------------|------------------------| 
|0-------0-------0-------|0-------0-------0-------|0-------0-------0-------| 

 |       |       |        |       |       |        |       |       | 
|----5-------8-------5---|----5-------5-------5---|----5-------5-------5---| 
|------------------------|--4---4-----------------|--4---4-----------4---4-| 
|--5---5---5---5---5---5-|----------4---4---6---6-|----------6---6---------| 
|------------------------|------------------------|------------------------| 
|------------------------|------------------------|------------------------| 
|0-------0-------0-------|0-------0-------0-------|0-------0-------0-------| 

 |       |       |        |       |       |        |       |       | 
|--0-4-2-0-------0---0---|0-----2-------2-------2-|----2-------------------| 
|----------3-2-0---2---0-|----5---5---5---5---5---|3-----5-3-2-----3---3---| 
|----------------2---1---|--3-------3-------3-----|--4---------4-2---4---2-| 
|------------------------|4-----------------------|----------------6---4---| 
|------------------------|------------------------|2-----------------------| 
|0-----------------------|----------------2-------|------------------------| 

 |       |       |        |       |       |        |       |       | 
|------0-------0-------0-|----0-------------------|------------------------| 
|3---3---3---3---3---3---|2-----3-2-0-------------|------0-------0-------0-| 
|--1-------1-------1-----|--2---------2-1-2---2---|2---2---2---2---2---2---| 
|2-----------------------|------------------4---2-|--1-------1-------1-----| 
|------------------------|0---------------6---4---|2-----------------------| 
|----------------0-------|------------------------|------------------------| 

 |       |       |        |       |       |        |       |       | 
|------------------------|------------------------|------------------------| 
|------0-------0-------0-|------------------------|------------------------| 
|1---1---1---1---1---1---|------2-------2-------2-|------2-------2-------2-| 
|--2-------2-------0-----|5---5---5---5---5---5---|4---4---4---4---4---4---| 
|------------------------|--4-------4-------4-----|--5-------5-------4-----| 
|0-----------------------|5-----------------------|5-----------------------| 

 |       |       |        |       |       |        |       |       | 
|------------------------|------------------------|0-----------0-2-3-2-3-0-| 
|------3-------3-------3-|2-----------------0-2-3-|--2---0-2-3-------------| 
|1---1---1---1---1---1---|--------------1-2-------|----2-------------------| 
|------------------------|--------0-2-4-----------|------------------------| 
|--2-------2-------2-----|--0-2-4-----------------|0-------0-------0-------| 
|0-----------------------|------------------------|------------------------| 

 |       |       |        |       |       |        |       |       | 
|2---------0-2-4-5-4-5-2-|4---------2-4-5-7-5-7-4-|5-------------7-9-7-9---| 
|--3-0-2-3---------------|--5-2-3-5---------------|--7---5-7-9-10--------10| 
|------------------------|------------------------|----7-------------------| 
|------------------------|------------------------|------------------------| 
|0-------0-------0-------|0-------0-------0-------|0-------0-------0-------| 
|------------------------|------------------------|------------------------| 

 |       |       |        |       |       |        |       |       | 
|------0-----------------|(4----------------------|(5--4-2-0---------------| 
|9-7-9---3-2-3-0---------|)5----------------------|----------3-2-0---------| 
|----------------1---1---|(4----------------------|----------------2-------| 
|------------------4---2-|------------------------|--------0---2-----2---2-| 
|------------------------|)5----------------------|)4------------------4---| 
|0-----------------------|------------------------|------------------------| 

 |       |       |        |       |       |        |       |       | 
|(2----------------------|(4----------------------|(5------(5------(4------| 
|)5----------------------|)3----------------------|)2------)3------)3------| 
|(2----------------------|(4----------------------|(2------(4------(4------| 
|)2----------------------|)2----------------------|)2------)2------)2------| 
|(3----------------------|(2----------------------|(0------(2------(2------| 
|------------------------|------------------------|------------------------| 

 |       |       |        |       |       |        |       |       | 
|(5----------5-7-5---5-7-|(3----------3-5-3---3-5-|(2--------------2-------| 
|)5----------------------|)2--------2-------2-----|)3--------3-2-3---3-2-3-| 
|(6--------6-------6-----|(2----------------------|(2----------------------| 
|)7----------------------|)2----------------------|)4----------------------| 
|(0----------------------|(0----------------------|(0----------------------| 
|------------------------|------------------------|------------------------| 

 |       |       |        |       |       |        |       |       | 
|(4--------5-4-5-4-5-4-5-|4h5p4h5p4h5p4h5p4h5p4-5-|(5--4-2-----------------| 
|)3----------------------|------------------------|)5------5-3-2-----------| 
|(4--------6-4-6-4-6-4-6-|4-----------------------|(6------------4-2-------| 
|)3----------------------|------------------------|)2----------------2---2-| 
|(0----------------------|------------------------|(0------------------4---| 
|------------------------|------------------------|------------------------| 

 |       |       | 
|-----------------------|| 
|-----------------------|| 
|2----------------------|| 
|2----------------------|| 
|4----------------------|| 
|5----------------------|| 
	  

Search Paypal
auto scroll beats size up size down change color hide chords drawings
tab show chords e-chords YouTube Clip e-chords hide all tabs e-chords go to top tab