Johann Sebastian Bach

Orchestral Suite No 2 In Bm, Bwv 1067, Menuet

Johann Sebastian Bach

tabs Expert expert

by  ALEXRIBEIRO

save to print version add songbook text version e-mail correct tuner
chordsukulelecavacokeyboardtabbassdrumsharmonicaflute Guitar Pro
close

there isn't a video lesson for this song

chords

Orchestral Suite No 2 In Bm, Bwv 1067, Menuet

	  		E|-----------2--7----|--5--3--------0------|-------2----0----| 
B|--0--2--3----------|-----------------2-0-|-----------------| 
G|-------------------|--------0--4---------|--3----3---------| 
D|--4-----------0----|-----4---------------|------------4----| 
A|--------2----------|--7------------------|-------1---------| 
D|-------------------|---------------------|------------4----| 

  tr~~ 
-------------------|-----------6--7-----|-----0-----6--7-----| 
--3(2)-2--3--0-----|--8--7--5--------8--|--7--------------7--| 
--4----------------|--------------------|--------7-----------| 
----------------0--|--------5-----------|--------------------| 
--2----------4-----|--7-----------4-----|--5-----9-----------| 
-------------------|--------------------|--------------9-----| 


--0--------2--------|--------------------|-----------2--7----| 
-----3--2-----3--0--|--3--2--------------|--0--2--3----------| 
--------------------|-----------1--3-----|-------------------| 
--------------------|--------4--------4--|--4-----------0----| 
--4-----1-----2-----|--------------------|--------2----------| 
--------------------|--4-----------------|-------------------| 

                                          tr~~ 
--5--3--------0------|-------2----0----|-------------------| 
-----------------2-0-|-----------------|--3(2)-2--3--0-----| 
--------0--4---------|--3----3---------|--4----------------| 
-----4---------------|------------4----|----------------0--| 
--7------------------|-------1---------|--2----------4-----| 
---------------------|------------4----|-------------------| 


-----------6--7-----|-----0-----6--7-----|--0--------2--------| 
--8--7--5--------8--|--7--------------7--|-----3--2-----3--0--| 
--------------------|--------7-----------|--------------------| 
--------5-----------|--------------------|--------------------| 
--7-----------4-----|--5-----9-----------|--4-----1-----2-----| 
--------------------|--------------9-----|--------------------| 


--------------------|--------------2----|--0-----------------| 
--3--2--------------|-----------2-------|-----3--------0-----| 
-----------1--3-----|-----1--3----------|--------------------| 
--------4--------4--|--4----------------|--------0--4--------| 
--------------------|--1-----------1----|--2--4-----------2--| 
--4-----------------|--------4----------|--------------------| 


-----------0--5----|--3--2--------------|--------------------| 
-----0--2----------|--------------3-----|--0--------2--3--0--| 
--2----------------|-----------2--------|-----2--0-----------| 
-------------------|--0--2--4-----------|--------------------| 
--4-----0-----4----|--------------------|--------2-----------| 
-------------------|--------------------|--5-----------2-----| 


--------------------|-----------------|--------------------|--2--0--------5----| 
-----------2--3-----|-----------------|--------------------|--------4--0-------| 
--2--0-----------2--|--0--------------|-----------------2--|--------4----------| 
--------4-----------|-------4----2----|--0--------0--4-----|-------------------| 
--------0-----------|--2---------0----|--------0-----------|--2-----------6----| 
--4-----------0-----|-------4---------|-----0--------------|-------------------| 


--5--3--------0-----|--------0--5--3----|--3--2--------------| 
--------------------|--2--3-------------|--------------------| 
--------0--4--------|--2----------------|--------------------| 
-----4-----------2--|-------------------|--------------0--4--| 
--7-----------------|--------4-----0----|-----------0--------| 
--------------------|-------------------|-----0--4-----------| 


-----------0--------|-----------------6--|--6--7-----0--------|---------------| 
-----0--2-----3--0--|-----------3--2-----|--------7-----3--2--|--0------------| 
--3-----------------|--0--------0--------|--------------------|---------------| 
--------------------|-----4--2-----4-----|--0-----------------|---------------| 
--4-----------2-----|-----------------7--|-----7--9-----------|--2------------| 
--------4-----------|--2-----------------|--------------4-----|---------------| 


--------------2----|--0-----------------|-----------0--5----| 
-----------2-------|-----3--------0-----|-----0--2----------| 
-----1--3----------|--------------------|--2----------------| 
--4----------------|--------0--4--------|-------------------| 
--1-----------1----|--2--4-----------2--|--4-----0-----4----| 
--------4----------|--------------------|-------------------| 


--3--2--------------|--------------------|--------------------| 
--------------3-----|--0--------2--3--0--|-----------2--3-----| 
-----------2--------|-----2--0-----------|--2--0-----------2--| 
--0--2--4--------0--|--------------------|--------4-----------| 
--------------------|--------2-----------|--------0-----------| 
--------------------|--5-----------2-----|--4-----------0-----| 


-----------------|--------------------|--2--0--------5----|--5--3--------0-----| 
-----------------|--------------------|--------4--0-------|--------------------| 
--0--------------|-----------------2--|--------4----------|--------0--4--------| 
-------4----2----|--0--------0--4-----|-------------------|-----4-----------2--| 
--2---------0----|--------0-----------|--2-----------6----|--7-----------------| 
-------4---------|-----0--------------|-------------------|--------------------| 


--------0--5--3----|--3--2--------------|-----------0--------| 
--2--3-------------|--------------------|-----0--2-----3--0--| 
--2----------------|--------------------|--3-----------------| 
-------------------|--------------0--4--|--------------------| 
--------4-----0----|-----------0--------|--4-----------2-----| 
-------------------|-----0--4-----------|--------4-----------| 


-----------------6--|--6--7-----0--------|---------------|| 
-----------3--2-----|--------7-----3--2--|--0------------|| 
--0--------0--------|--------------------|---------------|| 
-----4--2-----4-----|--0-----------------|---------------|| 
-----------------7--|-----7--9-----------|--2------------|| 
--2-----------------|--------------4-----|---------------|| 
		  

See also:

tabs Johann Sebastian Bach - Badinerie (from Orchestral Suite No. 2 In B Minor) Bwv 1067 tabs Johann Sebastian Bach - Allegro (from Violin Sonata No 2 In Am - Bwv 1003) tabs Johann Sebastian Bach - Andante - Violin Sonata tabs Johann Sebastian Bach - Suite 3 For Cello Bwv1009 - Giga tabs Johann Sebastian Bach - Theme From Brandenburg Concerto - 2 In F Major tabs Johann Sebastian Bach - Air On The G String
e-chords

Other versions:

tabs Johann Sebastian Bach - Orchestral Suite No 2 In Bm, Bwv 1067, Menuet
auto scroll beats size up size down change color hide chords drawings
tab show chords e-chords YouTube Clip e-chords hide all tabs e-chords go to top tab

share