Johann Sebastian Bach

home > Johann Sebastian B...

Minueto em Sol Maior (solo) Tab

Johann Sebastian Bach

Difficulty: AdvancedAdvanced

by %5FJuH%5F

tuner correct add songbook print version text version save to e-mail
chordsukulelecavacokeyboardtabbassdrumsharmonicsflute Guitar Pro
chords

Minueto em Sol Maior (solo)

  		Acordes:  G C G Am Em F#7 D 


e||--------------------------------------------------------------------------------- 
B||--------------------------------------------------------------------------------- 
G||-------------------------------------------6------------6---8---9------------- 
D||---9-------------6---7---9------------------7---9---------------------------- 
A||--------7---9------------------7---7---------------------------------7---7--- 
E||---------------------------------------------------------------------------------- 



e||----------------------------------------------------------------------------------- 
B||----------------------------------------------------------------------------------- 
G||----------------------------------------------------------------------------------- 
D||--7---9---7---6-------6---7---6-------------------------------------6-------- 
A||---------------------9----------------9---7---6---6---7---9---7--------9---9 
E||----------------------------------------------------------------------------------- 



e||----------------------------------------------------------------------------------- 
B||----------------------------------------------------------------------------------- 
G||-----------------------------------------------------------6-----------6---8---9 
D||--9---7---6--------9------------6---7---9------------------7---9------------- 
A||----------------9--------7---9-----------------7---7---------------------------- 
E||------------------------------------------------------------------------------------ 



e||--------------------------------------------------------------------------------------- 
B||--------------------------------------------------------------------------------------- 
G||--------------------------------------------------------------------------------------- 
D||-------------7---9---7---6--------6---7---9-----------------6--------------------- 
A||---7---7-----------------------9-----------------9---7---9--------9---7---6---7-- 
E||----------------------------------------------------------------------------------------- 


	  

Full key step upFull key step up
Half key step upHalf key step up
Half key step downHalf key step down
Full key step downFull key step down
Search Paypal
auto scroll beats size up size down change color hide chords drawings
tab show chords e-chords YouTube Clip e-chords hide all tabs e-chords go to top tab