Johann Sebastian Bach

home > Johann Sebastian B...

Largo - Violin Sonata Tab

Johann Sebastian Bach

Difficulty: BeginnerBeginner

by alexribeiro

tuner correct add songbook print version text version save to e-mail
chordsukulelecavacokeyboardtabbassdrumsharmonicsflute Guitar Pro
chords

Largo - Violin Sonata

  		  E=50 
  4/4 

  S S S S S S S S S S E S S S S   S S S S S S S S S S E S S S S 
|-------1-3-0-1-----------------|--------------------------------| 
|-----1-----------3---1---------|---------------3-------------1--| 
|-2-3-----------2---3-----3-2-0-|---------0-2-3---3-2-2---2-3----| 
|-3---------------2-------------|-3-2-0-3---------2--------------| 
|-------------------------------|-5---------------3--------------| 
|-------------------------------|--------------------------------| 
  E   E   Q       E   E Q         E   E   Q       E   E Q 

   S S S S S S S S S S S S S S S S   S S S S S S S S E S S E   E 
|---------3-5-6-3-1-0-----1-------|--------------------------------| 
|-3-----3-------------3-1---------|-------3-----1---------3---3----| 
|---2-3-----------3-------2-------|-0---------0---3-2-0------------| 
|-3-------------------------3-2-3-|---2-3---2-------3---3---2-3-0--| 
|-1---------------------------0---|-1-------3----------------------| 
|---------------------------------|--------------------------------| 
  E   E   Q       E   E   E   E     E   E   E   E   E E   S S S S 

  E   E E   E   E   E +S  S S S   S S E S S S S S S S S S S S S 
|-------1---1---1---0-(0)-5-----|-----3-------0-0-----------0-1-| 
|-3---1-------------1-------3---|-0-------1-3-----1-0-----3-----| 
|-----2---0-2---0-------------5-|---0-----------------2---------| 
|-2-----------3--------3--------|-3-----2-------3-------3-------| 
|---0-------------3-------------|-------------------------------| 
|-------------------------------|-------------------------------| 
  S S E S S S S S S E  E    E     E   E E   E   E   E   E   E 

  S S S S S S S S E   S S E. S   S S S S S S S S S S E S S S S 
|-1-------5-------------5------|-------------------------------| 
|-0-3-1-0---6-8-0-1------------|-1-----1-3-0-1-----------------| 
|-0---------------------5-4--5-|-----0---------2-------------2-| 
|---------------3-2-0---3-5----|-2-3-------------3-2-3---0-3---| 
|---------------------3--------|-3---------------3-------------| 
|------------------------------|-------------------------------| 
  E   E   E   S S S S S S Q      E   E   Q       E   E Q 

  S S S S E S T T E S S E   E     S S S T T E   E   S S S S S S S S 
|---1---------------------------|---------------------------------6-| 
|-3---3-0-----------------------|-------1---1-------1-----3-4-3-4---| 
|---------0-------------3---3---|-3-0-2---3-----5---0-2-3-----------| 
|-----------3-2-3-2-0-----0-2---|-3-----------2-4-------------------| 
|---------2-------3---3-------3-|-----------------5-----------------| 
|-------------------------------|-----------------------------------| 
  Q       E E     E E   S S S S   E   E     S S S S E   E   Q 

  S S S S S S S S S S S S S S S S   S S E S S S S S S S S E T T S 
|-5-3-5---------4-3-2-3-----------|---------------------6-5--------| 
|-4-------3---3---3-----0-1-0-1-4-|---------4-3-------3-----8-7-8--| 
|-------5---5---------------------|---2-5-------5-3-5-----5--------| 
|-3---------------1---------------|-4-----4-------5-------0--------| 
|---------------------------------|-0------------------------------| 
|---------------------------------|--------------------------------| 
  Q       Q       E   E   Q         E   E E   E   E   E   E E 

  S T T E S. T T T T T S S S S S T T S S 
|-3-6-5-6----5-3---------------0-3-1-3-5-| 
|----------------6-5-3-1-0-1-3-----------| 
|-3--------------------------------------| 
|---------3------------2-----------------| 
|-5--------------------------------------| 
|-3--------------------------------------| 
  E     E    Q         E   E   Q 

  S S E S. T T T T T S S S S S S S S 
|-6-3-5----3-1-0-------------3-0-1-----| 
|----------------3-1-------3-----------| 
|-5------------------3-2-3---------3---| 
|-3-----2------------3-----------------| 
|--------------------------------------| 
|--------------------------------------| 
  E   E    Q         E   E   Q 

  S S S S S S S S S S S S S T T S S   S T T S S S S S S S S S S S S S S 
|---------3-0-1---------1-5-3-1-0-0-|-0-1-0-----------------------------| 
|-------1-----------0-3-------------|-1-----3-1-------------------------| 
|-2-0-2---------2-0-----------------|-0-------------0-2-2---------0-2-3-| 
|-----------------------------------|-------------3-----0-3-2-0---------| 
|-3---------------2-----------------|-1---------0-------1-------1-------| 
|-----------------------------------|-----------------------------------| 
  E   E   Q       E   E   Q           E     E   E   E   E   E   E   E 

  S S S S S S S S E   S S E. S   S S S S S S S S T T T T S S S S S S 
|------------------------------|-----------------------------3-------| 
|---------3---1---------3------|-------1-------1-----------3---3-----| 
|-3-0-------3------------------|---0-2---------------0-2-3-------4---| 
|-2---3-2-------2-3-----3-2--3-|-3-------1-0-1---0-3---------------3-| 
|-3-------------1-0---0-1-3----|-------------------------------------| 
|-------------------3----------|-------------------------------------| 
  E   E   E   S S S S S S Q 

  T T T T T T T T T T T T T T T T T T T  T E S. T T T T T 
|-------------0-1-3-0-----------5-6-5-6-10-8----0-1-0-----| 
|-------0-1-3-------------5-6-8-----------------------3-1-| 
|---0-2---------------5-7--------------------3------------| 
|-2-------------------------------------------------------| 
|---------------------------------------------------------| 
|---------------------------------------------------------| 

  S T T S S E T T S S T T E S. T T T T T   T T T T T T T T E. S H 
|-1-0---------------1-4-3-4----5-3-1-0-1-|-------6-5------------1---*| 
|-----3-1-3---------3-------0------------|-1-5-6-----8-5-6-5--6-----*| 
|-2---------2-0---0-1--------------------|-2---------------3----2---*| 
|---------3-----3------------------------|-----------------5----3---*| 
|-----------3-------1--------------------|-3---------------3--------*| 
|----------------------------------------|--------------------------*| 
  E     S S Q       E     E Q              E       E       Q    H 

H - half;   Q - quarter;   E - 8th;   S - 16th;   T - 32nd; 
+ - note tied to previous;    . - note dotted 
Low melody durations appear below the staff 

 |  - bar 
*|  - double bar (ending) 
	  

Search Paypal
auto scroll beats size up size down change color hide chords drawings
tab show chords e-chords YouTube Clip e-chords hide all tabs e-chords go to top tab