Johann Sebastian Bach

home > Johann Sebastian B...

jesus, joy of man's desiring Tab

Johann Sebastian Bach

Difficulty: ExpertExpert

tuner correct add songbook print version text version save to e-mail
chordsukulelecavacokeyboardtabbassdrumsharmonicsflute Guitar Pro
chords

jesus, joy of man's desiring

  		Transcribed by prusche 
 
 Music by Johann Sebastian Bach 
 
  
 
Tuning -(E A D G B E)   
 
 
    
|---------------0---|---3-2-3-----------|-----0-------------| 
|-------0-3-1-1---3-|-3-------3-0-----0-|-1h3---3-1-0---0---| 
|---0-2-0-----------|-------------0h2---|-------------2---0-| 
|-------------2-----|-------2-----------|-------------------| 
|-------------------|-2-----------------|-0-----2-----3-----| 
|-3-----------------|-------------0-----|-------------------| 
 
   
|-------------------|---------------0---|---3-2-3-----------| 
|---------------0---|-0-----0-3-1-1---3-|-3-------3-0-----0-| 
|---0-2-----2-5---2-|---0h2-------------|-0-----------0h2---| 
|-4-------4---0-----|-------------------|-------2-----0-----| 
|-5-----5-----------|-------------3-----|-2-----------------| 
|-------------------|-3-----0-----------|-------------------| 
   
   
|-------------------|-------3-----------|----------| 
|---3-1-0-----------|---0-3---3-0---0-3-|-0-----1--| 
|---------2-0---0---|-0-----------0-----|-0-----0--| 
|-2---------------4-|-0-----------0-----|-0-----2--| 
|-3-----4-----5-----|-2-----2-----------|----------| 
|-------------------|-3-----------------|-3--2--0--| 
   
|----------|----------|-------------------| 
|-3-----3--|-1-----0--|---------------1-0-| 
|-2--0-----|-0--2--0--|-2-------2-0-2-----| 
|-0-----0--|-2--0--0--|-4---2-4-----0-----| 
|-------2--|----------|-5-5---5-----------| 
|-2--0-----|-0--2--3--|-------------------| 
   
|-------------------|----------|----------| 
|-1-----------1p0---|-0-----1--|-3-----0--| 
|---2-------2-----2-|-0-----0--|-0--0--0--| 
|-0---4-0h4---0-----|-0-----2--|-------2--| 
|-------------------|----------|-2--------| 
|-------------------|-3--2--0--|----0-----| 
   
|--------------|---------------0---|---3-2-3-----------| 
|---0-1-0------|---0---0-3-1-1---3-|-3-------3-0-----0-| 
|-2-------0-2--|-0---2-0-----------|-------------0h2---| 
|-------0---0--|-0-----------2-----|-------2-----------| 
|-3---------3--|-2-----------------|-2-----------------| 
|--------------|-------------------|-------------0-----| 
    
|-----0-------------|-------------------|---------------0---| 
|-1h3---3-1-0---0---|-------------1-0---|-0-----0-3-1-1---3-| 
|-------------2---0-|---0-2-----2-----2-|---0h2-------------| 
|-------------------|-4-------4---0-----|-------------------| 
|-0-----2-----3-----|-5-----5-----------|-------------3-----| 
|-------------------|-------------------|-3-----0-----------| 
    
|---3-2-3-----------|-------------------|--------*| 
|-3-------3-0-----0-|---3-1-0-----------|--------*| 
|-0-----------0h2---|---------2-0---0---|-^0-----*| 
|-------2-----0-----|-2-----------0---4-|-^0-----*| 
|-2-----------------|-3-----4-----------|-^2-----*| 
|-------------------|-------------------|-^3-----*| 
    
 
 

	  

Full key step upFull key step up
Half key step upHalf key step up
Half key step downHalf key step down
Full key step downFull key step down
Search Paypal
auto scroll beats size up size down change color hide chords drawings
tab show chords e-chords YouTube Clip e-chords hide all tabs e-chords go to top tab