Johann Sebastian Bach

home > Johann Sebastian B...

Courante From Suite N.3 For Solo Cello, Bwv 1009 Tab

Johann Sebastian Bach

Difficulty: IntermediateIntermediate

by alexribeiro

tuner correct add songbook print version text version save to e-mail
chordsukulelecavacokeyboardtabbassdrumsharmonicsflute Guitar Pro
chords

Courante From Suite N.3 For Solo Cello, Bwv 1009

  		(3/4) 
(note duration) w=1, h=1/2, q=1/4, e=1/8, s=1/16, t=1/32. 

 e  e e e e        e e e e e  e e e e e      e e e e e  e e e e e e  e e   e e e 
|5-|5-0---------|--5-7-5-4-5-|7-4-0-------|--7-5-4---0-|5-4---0-----|------2-0---| 
|--|----2-------|------------|------0-----|--------7---|----7---3-2-|3---------3-| 
|--|------2-----|------------|--------1---|------------|------------|--4---------| 
|--|--------2---|------------|----------2-|0-------0---|------------|----2-------| 
|--|----------4-|0-------0---|------------|------------|4-----------|2-----------| 
|--|------------|------------|0-----------|------------|------------|--------4---| 
            e e  h       q    h         e  h       q    h            h   e   q 

 e e e e e      s s e e  e e e e e e  e e e e e e  e e e e e e  e e e e 
|------------|----------|----0-2-4-5-|--7---7-5-4-|5-4---------|------------| 
|2-0---------|----0-2-4-|--0---------|6-----------|----7-6-7---|----2-------| 
|----2-1-2---|--2-------|1-----------|----6-------|----------6-|2-4---2-----| 
|----------2-|----------|2-------0---|------------|4-----------|--------4-2-| 
|0-----------|0---------|------------|4-------4---|------------|------------| 
|------------|----------|------------|------------|------------|2-----------| 
 h         e  Q          q       q    h       q    h            h       e e 

     e e e e  e e e e e e  e e e e e e  e e e e        e e e e e  e e e e 
|------------|2-----5-4-2-|4-2-0---0---|------------|------------|------------| 
|--------4-5-|--4---------|------4---0-|----0-------|--5-7-5-4-5-|------------| 
|----4-6-----|----4-------|------------|1-2---1-----|------------|2-4-2-1-----| 
|--4---------|--------1---|2-----------|--------2-0-|------------|--------4-2-| 
|6-------4---|2-----------|------------|------------|4-----------|------------| 
|------------|------------|------------|0-----------|------------|------------| 
 h e     q    h       q    h            h       e e  H                    e e 

   e e e e e  e e e e e      e e e e e    e e e e e  H e e e e e  e e e e e e 
|--2-4-2-0-2-|------------|--4-5-4---4-|--5-7-5---5-|--7-9-7-----|--0---------| 
|------------|--2-0-------|--------2---|--------4---|-------10-9-|7---3-2-3-0-| 
|------------|2-----2-1---|------------|------------|------------|------------| 
|1-----------|----------4-|2-----------|4-----------|6-----------|------------| 
|------------|------------|------------|------------|------------|------------| 
|------------|------------|------------|------------|------------|0-----------| 
 H                      e  H            H                         H 

   e e e e e  q e e e e e    e e e e e    e e e e e    e e  e e e    e e  e e e 
|------------|----------0-|--------0-2-|------0-2-4-|-------------|-------------| 
|--3-2-0-2---|----0-2-4---|--0-2-4-----|--2-4-------|-10-7-10--10-|-10-7-10--10-| 
|----------2-|1-2---------|------------|------------|---------8---|---------8---| 
|------------|------------|4-----------|2-----------|-------------|-------------| 
|0-----------|------------|------------|------------|-------------|-------------| 
|------------|------------|------------|------------|7------------|7------------| 
 H                         q            q            H             H 

 H e e e e e  H e e e e e  H e e e e e  H e e e e e  e e e e        e e e  e e e e e e 
|------------|------------|------------|------------|5-----------|--------|4-5-7---4-0-| 
|--8---8---8-|--8---8---8-|--7-5-7---7-|--7-5-7---7-|--7---0-----|--0-4-7-|------7-----| 
|----9---8---|----9---9---|5-------8---|5-------8---|----8-------|--------|------------| 
|9-----------|9-----------|------------|------------|--------4---|--------|------------| 
|------------|------------|------------|------------|----------6-|--------|------------| 
|------------|------------|------------|------------|------------|7-------|0-----------| 
                                                             e e  Q        H 

 e e e e e e  e e e e   e  h     e  e e e e e e  e e e   e      e e e q e 
|--4-5-0-----|0-----------|0--||-7-|7-4-0-------|------------|----------0-| 
|7-------7-4-|--0-2-----4-|0--||---|------0---0-|3-0---------|--3-2-0-2---| 
|------------|------2-----|1-*||*--|--------1---|----1---1---|--------2---| 
|------------|--------4---|2-*||*--|------------|------4---2-|------------| 
|0-----------|----0---2---|2--||---|------------|------------|0-----------| 
|------------|4-----------|0--||---|0-----------|--------0---|------------| 
 H            q   q   q    h        H                  e q e  h 

 e e e e e e  e e e e e e  e e e e e e  e e e e e e  h e e e e e  e e e e e e 
|--7-9-------|------------|----4-5-7-4-|--------4---|--4-----9---|--2-------0-| 
|10----910-7-|----7-----0-|--7---------|6-4-6-7---6-|----6-----0-|----2-------| 
|------------|7-9---6-7---|------------|------------|6-----6-----|2-----2-1---| 
|------------|------------|6-----------|------------|------------|------------| 
|9-----------|------------|------------|4-----------|------------|------------| 
|------------|7-----------|7-----------|------------|------------|------------| 
 H            H            H            H                         Q     e q 

   e e     e    e       e    e e e e e    e e e e e    e e e e e  e e e e e e 
|------------|------------|--5-4-5-7---|--9-7-------|--7---------|2-----------| 
|--3-------2-|--0---------|----------6-|-----10-9-7-|---10-9-7-6-|--2-------2-| 
|----2-------|----------2-|------------|------------|------------|----4-2-4---| 
|4-----4-2---|0---4-0-----|------------|------------|------------|------------| 
|------------|--------4---|2-------4---|0-----------|--------4---|------------| 
|------------|------------|------------|--------7---|9-----------|2-----------| 
 Q     e q    Q   e e q    h       q    h       q    h       q    H 


   s s s s s s  e e e e e e    e e e e e  e e e e e e    e   e e e  e e e e e e 
|--2-4-5-4-5-2-|0-------0-3-|--7-5-----0-|2-----------|------2-0-2-|3-2-0-----0-| 
|--------------|--2---2-----|------8-7---|--3-2-3---3-|------------|------3-2---| 
|--------------|----2-------|------------|--------2---|--2---------|------------| 
|4-------------|------------|------------|0-----------|4---0-------|------------| 
|--------------|4-----------|0-----------|------------|------------|------------| 
|--------------|------------|------------|------------|------------|--------0---| 
 Q              H            H            H            e   e                q 

 e e   e                         e e e    e e e e e    e e e e e    e e e e e 
|------------|------------|------------|------------|------2-----|------------| 
|--2---------|------------|------0-2-3-|--3-2-------|----3---3---|--7-5-------| 
|3-----0-----|------------|------------|------4-2-1-|--2-------4-|------7-6-4-| 
|----2---4-2-|0---0-2-4-0-|--0-4-------|------------|------------|------------| 
|------------|--4---------|2-----------|------------|------------|------------| 
|2-----------|------------|------------|1-----------|2-----------|4-----------| 
 H   e   e e  e e e e e e  q e e        H            H            H 

   e e e e e    e e e e e    e e e e e    e e e e e  e e e e e e    e e e e e 
|------5-----|------------|------9-----|--9-7-------|--7---0-----|------------| 
|----7---7---|-10-9-7-----|---10--10---|-----10-9-7-|9---9---0---|--3-0-3---3-| 
|--6-------7-|--------9-7-|--9------11-|------------|----------1-|--------1---| 
|------------|------------|------------|0-----------|------------|2-----------| 
|------------|------------|------------|------------|------------|------------| 
|5-----------|7-----------|9-----------|------------|0-----------|------------| 
 H            H            H            H            H            H 

   e e e e e    e e e e e    e e e e e    e e e e e    e e e e e  e   e e e e 
|------------|------------|------------|------------|------------|----------4-| 
|--3-0-3---3-|--1---1---1-|--1---1---1-|--0---0---0-|--0---0---0-|3-----0-3---| 
|--------1---|----2---1---|----2---1---|----2---1---|----2---1---|----1-------| 
|2-----------|2-----------|2-----------|3-----------|3-----------|--2---------| 
|------------|------------|------------|------------|------------|------------| 
|------------|------------|------------|------------|------------|------------| 
 H            H            H            H            H              e 

 Q e e e  e e e e e e  e e e e e e  e e e e e e  H 
|7-5-4-2-|0-----0-----|------------|--0-2-----4-|5-|| 
|--------|--3-2---3-0-|2-0---2-0---|------3-0-3-|2-|| 
|7-------|------------|----2-----1-|2-----------|2-|| 
|6---0---|--------0---|2-------0---|----0---2---|2-|| 
|--------|4-----------|------------|4-----------|0-|| 
|0-------|------------|------------|------------|--|| 
 h   q    h       q    h       q    q   q   q    H 
	  

Search Paypal
auto scroll beats size up size down change color hide chords drawings
tab show chords e-chords YouTube Clip e-chords hide all tabs e-chords go to top tab