Johann Sebastian Bach

home > Johann Sebastian B...

Chaconne (Part 1) Tab

Johann Sebastian Bach

Difficulty: ExpertExpert

by brunblazkowski

tuner correct add songbook print version text version save to e-mail
chordsukulelecavacokeyboardtabbassdrumsharmonicsflute Guitar Pro
chords

Chaconne (Part 1)

  		


e|-----------------------------------1---------------------------------------| 
B|---------------5------5---------5--3------3--------------------------------| 
G|--2---------2--3------2---------2--2------3------5-----3---2---------------| 
D|--3---------3--5------5---------5--0------3------------5---3---------------| 
A|--5---------5--5------4---------4---------1----------------0---------------| 
D|-------------------------------------------------------5-------------------| 

e|-----------------------------------------------------1---------------------| 
B|------------------------------------5---5---------5--3------3--------------| 
G|--0---------0----------2---------2--3---2---------2--2------3--------------| 
D|------3-2-3---2-3-0----3---------3--5---5---------5--0------3--------------| 
A|--4---------0----------5---------5--5---4---------4---------1--------------| 
D|------------0--------------------------------------------------------------| 

e|-------6------5------3p1h3---0--1------------------------------------------| 
B|-------5------2--------------2--3------------------------------------------| 
G|--/7---7------2--------------2--2--------------0-2-3--2--------------------| 
D|-------5------2-----------------0---0--2--3-----------3--------------------| 
A|-------7------0-----------------0---------5-----------5--------------------| 
D|-------5------------------------0------------------------------------------| 

e|-----------------------------1--0-----------------5------------------------| 
B|--5-----5--------5-5-----3---------3--3----2------2------------------------| 
G|--3-----2---3-2--2-2---------2--0----------2--0---2------------------------| 
D|--5---3-5--------5-3--2--3---------3--2-0--2----3-2------------------------| 
A|--5-----4--------4-5-----1------------0----0------0------------------------| 
D|-----------------------------------5---------------------------------------| 

e|--1------------------------------------------------------------------------| 
B|--3----------------------------5-----5-----------5------3------------------| 
G|--2-----------------0-2-3---2--3-----2---3-2---0-2-------------------------| 
D|--0---------2---3--------------5---3-5-----------3---2--3------------------| 
A|--0----------------------------5-----4-----------5------1------------------| 
D|--0------------------------------------------------------------------------| 

e|--1--0---------------------------------------------------------------------| 
B|-------2--3---5--3--2---3--------------------------------------------------| 
G|--2--0-----------2--2------------------------------------------------------| 
D|-------2--3---5--2--2------------------------------------------------------| 
A|-------1--0------0--0------------------------------------------------------| 
D|--------------5------------------------------------------------------------| 

e|----------3-5-6--1-0--6-5--3--5--2-3--1-0-------0-1--3-0-0-1-3---2--1------| 
B|--3---5-6--------3-2-------------1-0------3p2h3------0---2-3-5---0--3------| 
G|------------------------5---------------3-------3-2----3-------------------| 
D|--0------------------------------------------------------------------------| 
A|---------------------------------------------------------------------------| 
D|--0-----------------------------------------------------------------0------| 

e|---------3-5-6--1--0--6-5---3-5-2--3--1-0-------0--1--3--0-----------------| 
B|--3-5-6---------3--2------------1--0------3p2h3-3--3-----3--2p0h2----------| 
G|----------------1--2----5-------2--0----3-------1--2-----2--------0--------| 
D|------------------------4--------------------------------------------------| 
A|------------------------------------------------1--0-----0--------0--------| 
D|---------------------------------------------------------------------------| 

e|-----1-0-------------------------------------------------------------------| 
B|---------3-2-3------------------------------3p2h3--------------------------| 
G|---------------0--2h3----3-2-0---0h2------0-------------0-3-2-0------------| 
D|--3------------0---------------3--------0---------3-2-3---------3-2--------| 
A|--5-------------------4--------5------1-------------0----------------------| 
D|--0---0-------------------------------------------5------------------------| 

e|--------1--1-0-3-1--0---------------------------------0--------------------| 
B|------3---------------3-2-3------------------------------------------------| 
G|----2-------------------------0-3---0-------0-3-----0---0------------------| 
D|--3--------0------------0---------4-------2-------2------------------------| 
A|----------------------------------------4----------------------------------| 
D|--0---------------------------0---------0-------------0--------------------| 

e|--------------------------------------1---0-1------------------------------| 
B|----------------------0-4-2-3-----0-3---------2-3-------3-2----------------| 
G|----------------0-2-------------1------------------------------------------| 
D|--3-----------0---------------------------------------2--------------------| 
A|----4-5-0---1-------------0-----2---------1---------0----------------------| 
D|--0-------------------5----------------------------------------------------| 

e|------6-5-4-----------5-3-2------------------------------------------------| 
B|--3-6-6-6-6---------0-5-4-4------------------------------------------------| 
G|------7-7-7-6----2----4-4-4------------------------------------------------| 
D|------------5----2-----------4---------------------------------------------| 
A|---------------4-------------3---------------------------------------------| 
D|--0------------------------------------------------------------------------| 
 
	  

Search Paypal
auto scroll beats size up size down change color hide chords drawings
tab show chords e-chords YouTube Clip e-chords hide all tabs e-chords go to top tab