Johann Sebastian Bach

home > Johann Sebastian B...

Cello Suite No 5 In Cm, Prelude, Bwv 1011 Tab

Johann Sebastian Bach

Difficulty: AdvancedAdvanced

by alexribeiro

tuner correct add songbook print version text version save to e-mail
chordsukulelecavacokeyboardtabbassdrumsharmonicsflute Guitar Pro
chords

Cello Suite No 5 In Cm, Prelude, Bwv 1011

  		|--------------------------------|--------------------------------| 
|--------------------------------|--------------------------------| 
|--------------------------------|1-----------1---0---1-----------| 
|------------------0-1-3-1-0-1---|3---------------------3-1---3-0-| 
|3-----------0-2-3-------------3-|2-------------------------------| 
|3---------3---------------------|--------------------------------| 

|--------------------------------|--------------------------------| 
|--------------------------------|--------------------------------| 
|--------------------------------|--------------------------------| 
|1---------------------------0-1-|0-----------0---2---------------| 
|3-------3-------3---------3-----|2---------------1-----------1---| 
|--------------------------------|--------------------------4---3-| 

|--------------------------------|--------------------------------| 
|----------------1-----------1---|1---------1---------------------| 
|--------------------------------|------------3-1-3-----0-1-----3-| 
|3---------------3---------------|3---------------2---------------| 
|--------3-----------------------|3-------------------------------| 
|4---------------4---------------|3-------------------------------| 

|--------------------------------|--------------------------------| 
|--------------------------------|--------------------------------| 
|1-------------------------------|------------0-1-0---------------| 
|3---------------3-----0-3-------|3---------------------3-1-----0-| 
|--------3---------------------3-|2-------------------------------| 
|--------------------------------|--------------------------------| 

|--------------------------------|--------------------------------| 
|--------------------------------|----------------------1---------| 
|--------------------------------|----------------0-2-3---3-2-3-0-| 
|1---------3-0-1-1-----------0---|0---------0-2-4-----------------| 
|3-------------------------------|--------------------------------| 
|3-------------------------------|3-------------------------------| 

|--------------------------------|--------------------------------| 
|4-----------4---3-----1---------|0-----------------------1-------| 
|------------------------2-----3-|----------------------0---------| 
|4-------------------------------|3-----------1-0-1-------------1-| 
|--------------------------------|--------------------------------| 
|3-------------------------------|3-------------------------------| 

|--------------------------------|--------------------------------| 
|1-----------1-----------2-------|2---------1---------------------| 
|----------3---2-3-----0---------|------------3-1-0-----1-3-----0-| 
|0-----------------------------3-|2-------------------------------| 
|--------------------------------|--------------------------------| 
|3-------------------------------|3-------------------------------| 

|--------------------------------|--------------------------------| 
|--------------------------------|--------------------------------| 
|1-------------------------------|1---------3-1-3-3-----------1---| 
|3-----------------------------1-|3-------------------------------| 
|----------------------1-3-------|1-------------------------------| 
|--------1-----3-4---------------|--------------------------------| 

|--------------------------------|--------------------------------| 
|--------------------------1-3---|4-------------3-1---------------| 
|0-------------------0-1-3-----3-|----------------------3-2-----0-| 
|1---------3-1-0-1-3-------------|--------------------------------| 
|1-------------------------------|--------3-----------------------| 
|--------------------------------|--------------------------------| 

|--------------------------------|--------------------------------| 
|3-------------------------------|--------------1-------1---------| 
|----------------------0---------|------2-3---------------3-----2-| 
|4-------------------------------|----------------0---------------| 
|----------3-1-0-1-------0-------|--------------------------------| 
|------------------------------3-|2-------------------------------| 

|--------------------------------|--------------------------------| 
|--------------------------------|------------------------1-----1-| 
|3---------0---------------------|3-----------------3-2-3---2-3---| 
|0-----------3-1-0---------------|1---------0---------------------| 
|------------------3-1-0-1---0-1-|3-----------3-1-3---------------| 
|3-------------------------3-----|3-------------------------------| 

|--------------------------------|--------------------------------| 
|--------------------------------|--------------------------------| 
|--0---0-2---0-2-----------------|--------------------------------| 
|4---4-----4-------0---0-1---0-1-|----------------0---------------| 
|----------------3---3-----3-----|0-1-0-1-3-0-1-3---------0-1-3-0-| 
|--------------------------------|------------------0-2-3---------| 

|--------------------------------|--------------------------------| 
|--------------1-3---------1-----|--------------------------------| 
|--------0-2-3---------------3-2-|3-------0-------0-------------0-| 
|--0-2-4-------------------------|------4---------0-------4-------| 
|1-------------------------------|--------------3-----------------| 
|--------------------------------|--------------------------------| 

|-------------|-------------|-------------|-------------| 
|-------------|-------------|-------------|-------------| 
|-0-------0---|-1-----------|-----0---0---|-------------| 
|-0-----------|---------0---|-1-----3---1-|-3-----------| 
|-------------|-----3-------|-------------|-----0---2---| 
|-3-----------|-------------|-------------|-------------| 

|-------------|-------------|-------------|-------------| 
|-------------|-------------|-------------|-------------| 
|-------------|-------0-1---|-------------|-------------| 
|-----1-0-1---|-0-1-3-------|------3-1-0--|1-3-0-1-3-0--| 
|-3---------3-|-------------|2------------|-------------| 
|-------------|-------------|----3--------|-------------| 

|-------------|-------------|-------------|-------------| 
|--------1-3--|4------------|----3-1-3----|1------------| 
|------0------|----0---2----|3---------3--|-------------| 
|1-0-1--------|-------------|-------------|----2---4----| 
|-------------|-------------|-------------|-------------| 
|-------------|-------------|-------------|-------------| 

|-------------|-------------|-------------|-------------| 
|-------------|----1-3---4--|--4-3-1------|--1-----1----| 
|0---3-2-3-0--|2-3-----0----|--------3-2--|3---2-3---2--| 
|-------------|-------------|4------------|5---0--------| 
|-------------|-------------|-------------|-------------| 
|-------------|-------------|-------------|-------------| 

|-------------|-------------|-------------|-------------| 
|-------------|--1----------|-------------|-------------| 
|3-0----------|----0-1-3-0--|1------------|------0-1----| 
|----0-1-3-0--|2------------|--3---0-1----|0-1-3-----3--| 
|-------------|-------------|----3-----3--|-------------| 
|-------------|-------------|-------------|-------------| 

|-------------|-------------|-------------|-------------| 
|-------------|-------------|-------------|-------------| 
|0------------|-------------|-------------|-------------| 
|--3-1-0------|--------0----|1---------1--|-------------| 
|--------3-1--|----3--------|-------------|----0---2----| 
|-------------|4------------|----3-1-3----|1------------| 

|-------------|-------------|-------------|-------------| 
|-------------|-------------|-------------|-------------| 
|-------------|-------------|-------------|-------------| 
|----1-0-1----|0-1----------|----0-1-3-0--|1-3-0-1-3-0--| 
|3---------3--|-------------|2-3----------|3------------| 
|-------------|----1-3-4-1--|-------------|----3--------| 

|-------------|-------------|-------------|-------------| 
|-------------|-------------|-------------|-------------| 
|-------------|0---0---2----|3------------|-------------| 
|1-0---0-1-3--|--3----------|----0---0----|--0-2---4----| 
|----3--------|-------------|------3---1--|3------------| 
|-------------|-------------|-------------|-------------| 

|-------------|-------------|-------------|-------------| 
|-------------|-------------|--------1----|--1-----1----| 
|0------------|-------------|--0-2-3---2--|3---2-3---2--| 
|-------------|------0-1----|4------------|5---0--------| 
|----1-0-1----|0-1-3-----3--|-------------|-------------| 
|----------3--|-------------|-------------|-------------| 

|-------------|-------------|-------------|-------------| 
|--------1-3--|4------------|----------1--|-3-----------| 
|3-0-2-3------|----------0--|1---0-1-3----|-------------| 
|0------------|----0-1-3----|--3----------|-------0-1-3-| 
|-------------|--3----------|-------------|---1-3-------| 
|3------------|-------------|-------------|-------------| 

|-------------|-------------|-------------|-------------| 
|-------------|1------------|-------------|-------------| 
|0-----0-1-3--|--3-1-0------|1-0----------|-------------| 
|--1-3--------|--------3-1--|----3-1-0----|3-1-0--------| 
|-------------|-------------|----------3--|------3-1-0--| 
|-------------|-------------|-------------|-------------| 

|-------------|-------------|-------------|-------------|-------------| 
|-------------|1------------|--1----------|-------------|-------------| 
|--------3----|------0---1--|0---3-1-3-0--|1------------|--1-0---0----| 
|1-0----------|----1---3----|-------------|------1-0-3--|1-----3---1--| 
|----3-1------|-------------|-------------|----3--------|-------------| 
|-------------|-------------|-------------|-------------|-------------| 

|-------------|-------------|-------------|-------------|-------------| 
|--------1----|-------------|-------------|-------------|-------------| 
|--0-1-3------|-------------|-------------|----0---0----|3-----3---3--| 
|3------------|1-0-------0--|1-3-3-----1--|1-----3---1--|----0---2----| 
|-------------|----3-1-3----|----1--------|1------------|-------------| 
|-------------|-------------|-------------|-------------|-------------| 

|-------------|-------------|-------------|-------------| 
|-------------|1-----1---1--|--1----------|4-----4---4--| 
|--3-1-0-1----|-------------|0---3-1-3-0--|----0---1----| 
|3---------3--|----1---3----|-------------|-------------| 
|-------------|-------------|-------------|-------------| 
|-------------|-------------|-------------|-------------| 

|-------------|-------------|-------------|-------------| 
|--3---3---3--|--1---1---1--|--1-0---0----|----1---3----| 
|3-------0----|1------------|0-----2---0--|1-3----------| 
|----3--------|----1---3----|-------------|-------------| 
|-------------|-------------|-------------|-------------| 
|-------------|-------------|-------------|-------------| 

|-------------|-------------|-------------|-------------| 
|4------------|--------0----|1------------|-------------| 
|--1-0---0----|--0-2--------|-------------|-------------| 
|------3---1--|3-----3---3--|--3-1-0-1----|0-1-3-0------| 
|-------------|-------------|----------3--|--------2-3--| 
|-------------|-------------|-------------|-------------| 

|-------------|-------------|-------------|------------| 
|-------------|-------------|-------------|------------| 
|-------------|-------------|-------------|----3-----1-| 
|0------------|1------------|----3-----1--|0-3---2-3---| 
|--2---0-2----|----3-----2--|0-3---2-3----|------------| 
|----3-----1--|--3---1-3----|-------------|------------| 

|-------------|-------------|-------------|-------------| 
|-------------|------1------|-------------|-------------| 
|--0---0---0--|--0-------3--|--2---2---2--|--1---3---1--| 
|3---1---0----|1---1---1----|1---3---1----|0---0---0----| 
|-------------|-------------|-------------|-------------| 
|-------------|-------------|-------------|-------------| 

|-------------|-------------|-------------|-------------| 
|-------------|4------------|----3-1-3----|1------------| 
|--1-0---0-3--|-------------|----------3--|-------------| 
|1-----3------|-------------|-------------|-------------| 
|-------------|--------0----|1------------|-------------| 
|-------------|----3--------|-------------|----0---2----| 

|-------------|-------------|-------------|-------------| 
|-------------|----1--------|-------------|-------------| 
|----3-2-3-0--|2-3---2---0--|2------------|----0--------| 
|-------------|--------4----|--4-0-2-4----|--0-----0-4--| 
|-------------|-------------|----------3--|1-----3------| 
|3------------|-------------|-------------|-------------| 

|-------------|-------------|-------------|-------------| 
|-------------|-------------|-------------|-------------| 
|-------------|-------------|----0--------|-------------| 
|--------0----|0------------|--0---2-3-0--|2------------| 
|-------------|----3-1-3-0--|1------------|--3-1-0-1----| 
|3------------|-------------|-------------|----------3--| 

|-------------|-------------|-------------|-------------| 
|-------------|-------------|-------------|0---3--------| 
|-------------|-------------|--0---0-1----|------1-0----| 
|----3-0-1----|----0-1-0-1--|3---3-----3--|--3-------3--| 
|--3-------3--|2------------|-------------|-------------| 
|4------------|-------------|-------------|-------------| 

|-------------|-------------|-------------|-------------| 
|-------------|-------------|-------------|-------------| 
|--0----------|-------------|-------------|-------------| 
|1---0-1-3-0--|1-------0----|--1-0-1-3-0--|2------------| 
|-------------|--3-2-3---2--|3------------|--1---1-3----| 
|-------------|-------------|-------------|----4-----4--| 

|-------------|-------------|-------------|-------------| 
|-------------|-------------|-------------|-------------| 
|--------0----|-------------|--0---0-1----|0------------| 
|--3-2-3---2--|3------------|----3-----3--|----0-----0--| 
|1------------|--------1----|-------------|-------------| 
|-------------|--4-3-4---3--|4------------|--0---0-1----| 

|-------------|-------------|-------------|-------------| 
|-------------|-------------|-------------|-------------| 
|-------------|-------------|----0-1-3-0--|1-0-------0--| 
|-------------|----------0--|2-3----------|----3-2-3----| 
|--------1----|------1-3----|-------------|-------------| 
|0-1-3-4---3--|4-3-4--------|-------------|-------------| 

|-------------|-------------|-------------|-------------| 
|----1-2---1--|2------------|--2-1---1----|-------------| 
|1-3-----3----|--3---1-0-3--|1-----3---1--|3-0-------0--| 
|-------------|----3--------|-------------|----0-3-2----| 
|-------------|-------------|-------------|-------------| 
|-------------|-------------|-------------|-------------| 

|-------------|-------------|-------------|-------------| 
|-------------|-------------|-------------|-------------| 
|--3-1-0-1----|0-1-3-0------|0------------|-------------| 
|3---------3--|--------2-3--|--2---0-2----|----3-----2--| 
|-------------|-------------|----3-----1--|--3---1-3----| 
|-------------|-------------|-------------|4------------| 

|-------------|-------------|-------------|-------------| 
|-------------|-------------|-------------|--1----------| 
|--------1----|1------------|--1----------|----3-1-0----| 
|3------------|----3-0-3-0--|----3-0-3-0--|----------3--| 
|-------------|-------------|1------------|1------------| 
|----1--------|-------------|-------------|-------------| 

|-------------|-------------|-------------|-------------| 
|-------------|-------------|-------------|-------------| 
|0-----0---1--|0------------|--0----------|--3-1-0------| 
|--3-1---3----|----1---1----|----1---1----|--------3-1--| 
|-------------|------3---3--|------3---3--|-------------| 
|-------------|-------------|4------------|4------------| 

|-------------|-------------|-------------|-------------| 
|-------------|-------------|-------------|----4-1-3-0--| 
|-------------|----3-0-1----|0-----0---1--|0-3----------| 
|0-----0---1--|0-3-------3--|--3-1---3----|-------------| 
|--3-1---3----|-------------|-------------|-------------| 
|-------------|-------------|-------------|-------------| 

|-------------|-------------|-------------|-------------| 
|1-----1---1--|--4-3-0-1-3--|--4-3-0-1-3--|--4-3-0-1-3--| 
|--3-1---0----|-------------|0------------|1------------| 
|-------------|3------------|-------------|-------------| 
|-------------|-------------|-------------|-------------| 
|-------------|-------------|-------------|-------------| 

|-------------|-------------|-------------|-------------| 
|--4-3-0-1-3--|--4-3-0-1-3--|-------------|----1--------| 
|-------------|0------------|-------------|--0----------| 
|4------------|-------------|----3-1-3-0--|1-----1-3-1--| 
|-------------|-------------|-------------|-------------| 
|-------------|-------------|3------------|3------------| 

|-------------|-------------|-------------|-------------| 
|----0--------|----1--------|--1-0-3------|-------------| 
|------1-0----|--0----------|--------0----|1------------| 
|0-3-------3--|1-----1-3-1--|0------------|--------0----| 
|-------------|-------------|-------------|----3--------| 
|3------------|3------------|-------------|-------------| 

|-------------|-------------|-------------|-------------| 
|-------------|-------------|-------------|-------------| 
|----0---0----|-------------|-------------|------0-1----| 
|1-----3---1--|3------------|----1-0-1----|0-1-3-----3--| 
|-------------|----0---2----|3---------3--|-------------| 
|-------------|-------------|-------------|-------------| 

|-------------|-------------|-------------|-------------| 
|1-0-----1-0--|1-3-3-----1--|1------------|--2-1--------| 
|----2-0------|----0--------|--3-1-0-1----|------3-1-0--| 
|-------------|-------------|----------3--|2------------| 
|-------------|-------------|-------------|-------------| 
|-------------|-------------|-------------|-------------| 

|-------------|-------------|-------------|-------------| 
|-------------|-------------|-------------|-------------| 
|1-0----------|--1-0--------|-------------|-------------| 
|----3-0-1----|------3-1-0--|1-0----------|--1-0--------| 
|----------3--|2------------|----3-0-1----|------3-2-0--| 
|-------------|-------------|----------3--|2------------| 

|-------------|-------------|-------------|-------------| 
|-------------|-------------|-------------|1---------1--| 
|-------------|1-0-0--------|----------0--|--3-3-2-2----| 
|--------0-3--|------3-3-1--|1-------1----|-------------| 
|2-0---2------|-------------|--3---3------|-------------| 
|----3--------|-------------|----3--------|-------------| 

|-------------|-------------|-------------|-------------| 
|-------------|1-343-1-1-0--|0-3-0--------|----1-0------| 
|----------2--|-------------|------0------|--------2-0--| 
|4-------4----|-------------|--------0----|-------------| 
|--3---3------|-------------|-------------|-------------| 
|----3--------|-------------|----------3--|1------------| 

-------------|-------------|-------------|-------------| 
|1------------|-------------|-------------|-------------| 
|-------------|----3-1-3-0--|1------------|----0---0----| 
|----1--------|-------------|--------0----|1-----3---1--| 
|-------------|-------------|----3--------|-------------| 
|--------1----|3------------|-------------|-------------| 

|-------------|-------------|-------------|-------------| 
|-------------|-------------|----2-1-0-1--|-------------| 
|-------------|-------------|-------------|1-0---0------| 
|3------------|----1-0-1----|-------------|----4---1-0--| 
|----0---2----|3---------3--|-------------|-------------| 
|-------------|-------------|1------------|-------------| 

|-------------|-------------|-------------|-------------| 
|-------------|-------------|-------------|-------------| 
|-------------|-------------|-------------|0------------| 
|--1----------|----------0--|1-0---0-1-3--|--0-1--------| 
|3---4-3-2-3--|----0-2-3----|----3--------|------3---2--| 
|-------------|2-3----------|-------------|--------3----| 

|-------------|-------------|-------------|-------------| 
|-------------|-------------|-------------|-------------| 
|-------------|-------------|-------------|-------------| 
|-------------|----3--------|----2--------|----3--------| 
|3-------1----|3-3-----1----|3-1---4-3-1--|3-3-----1----| 
|----6-4---3--|4-----4---4--|3------------|4-----4---4--| 

|-------------|-------------|-------------|-------------| 
|-------------|-------------|-------------|-------------| 
|-------------|-------------|-------------|--0----------| 
|----2--------|----3-0-1----|0-1-0--------|1---3-1-0----| 
|3-1---4-3-1--|3-3-------3--|2-----3-2-0--|----------3--| 
|3------------|4------------|-------------|3------------| 

|-------------|-------------|-------------|-------------| 
|-------------|-------------|1------------|--4-3-101----| 
|3------------|--2-0--------|-------------|----------0--| 
|5------------|------3-1-0--|1------------|-------------| 
|3------------|-------------|3------------|-------------| 
|-------------|1------------|-------------|3------------| 

-------------|-------------|------------|| 
-------------|--------0----|1-----------|| 
1---0--------|-------------|------------|| 
--4---0-1----|--------3----|2-----------|| 
----------2--|3------------|3-----------|| 
-------------|--2-3---3----|3-----------|| 
	  

Search Paypal
auto scroll beats size up size down change color hide chords drawings
tab show chords e-chords YouTube Clip e-chords hide all tabs e-chords go to top tab