Johann Sebastian Bach

home > Johann Sebastian B...

Bwv 1008 - Courante - Cello Suite No 2 In D Minor Tab

Johann Sebastian Bach

Difficulty: nolevelnolevel

by alexribeiro

tuner correct add songbook print version text version save to e-mail
chordsukulelecavacokeyboardtabbassdrumsharmonicsflute Guitar Pro
chords

Bwv 1008 - Courante - Cello Suite No 2 In D Minor

  		---|-------------------------|---------------------|-------------------------| 
-3-|-3-----------------------|---------------------|-------------------------| 
---|---2---2-----0-2-3-2-3-0-|-2-----------0---0---|---------------2-0-------| 
---|-----3---0-3-------------|-------0-2-3---3---2-|-3-0-2-------------3-2-0-| 
---|-------------------------|-4-------------------|-------3-1-0-1-----------| 
---|-------------------------|---------------------|-------------------------| 

-------------------------|-------------------------|-------------------------| 
-------------------------|-----------------1---3-1-|-1-----------------------| 
-----------------0-3-2---|---2-------0-2-3---3-----|----------3-2-0----------| 
---2-------0-2-3-------2-|-3---0-2-3---------------|-3---------------3-1-0-1-| 
-4---0-2-4---------------|-------------------------|-------------------------| 
-------------------------|-------------------------|-------------------------| 

-------------------------|-------------------------|-------------------------| 
-------------------------|-------------------------|-----------------1---3---| 
---------------------0---|-------------0-2-3-2-3-0-|-2-------2---3-----------| 
-0-------0---2---3-------|-------0-2-3-------------|---3-2-3---3---3---3---3-| 
---1-0-1---1---1---1---1-|-----3-------------------|-------------------------| 
-------------------------|-0-3---------------------|-------------------------| 

-------------0-1-3-1-3-0-|-----1-0-----------------|-------------------------| 
-------0-2-3-------------|---------3-1-3-1-0---0---|-----0-------------------| 
-----2-------------------|---2---------------2---2-|-1-2---------------------| 
---2---------------------|-0-----------------------|-------2-3-2-3-0-2---0---| 
-4-----------------------|-------------------------|-------------------3---2-| 
-------------------------|-------------------------|-------------------------| 

-------------------------|-------------------------|-------------------------| 
-----0-1-0---------------|-----0-1-0---------------|-----0-1-0---------------| 
---2-------2-1-2---2---2-|---2-------2-1-2---2---2-|---2-------2-1-2---2---1-| 
-----------------0---2---|-3---------------3---2---|-1---------------2---2---| 
-3-----------------------|-------------------------|-------------------------| 
-------------------------|-------------------------|-------------------------| 

------------------------||-0-||-0-----------------------| 
----------------------3-||---||---2---2-------------2---| 
-2-------------1-2------||---||-----2-------0-2-3-0---0-| 
---2---2-----2----------||---||---------2-3-------------| 
-----4---0-4------------||---||-------------------------| 
------------------------||---||-------------------------| 

-------------0-1-------|-------------------------|-------------------------| 
-3---------3-----3---1-|-0---------------0---3---|-------------------3-1---| 
---------2---------2---|---------------0---------|---0---------0-2-3-----0-| 
-3---------------------|---3-0-3---0-3-----3---3-|-2-----0-2-3-------------| 
-----------------------|-------------------------|-----3-------------------| 
-----------------------|---------3---------------|-------------------------| 

-------------------------|-------------------------|-------------------------| 
---1---------------1-----|---------------------1-3-|-------------------------| 
-2---3-2-0---------------|---------------0-2-3-----|-------------------------| 
-3---------3-1-0-1---3-1-|-0---------2-3-----------|-2---------3---------3-2-| 
-------------------------|-1-----------------------|---1-0---0-------3-------| 
-------------------------|-------------------------|-------3-----3-1---3-----| 

-------------------------|-------------------------|---------------0-1-------| 
-------------------------|-------------------------|---------3---3-----------| 
---2-3-2-0-------0-------|---0---0---0---0---0---0-|-------2---2-------2-----| 
-3---------3-2-3---2-3-0-|-------------------------|-3-0-3---------------3-0-| 
-------------------------|-4---2---0---2---4---0---|-------------------------| 
-------------------------|-------------------------|-------------------------| 

-----------3---1---0-----|-----0-------------------|-----0-1-0---------------| 
-----------------------3-|-2-3---2---2---2---2---2-|---3-------3-2-3---3---3-| 
-----0-2-3---2---0-------|---------2---3---2---0---|-----------------0---2---| 
---0-----------------3---|-------------------------|-3-----------------------| 
-------------------------|-------------------------|-------------------------| 
-3-----------------------|-------------------------|-------------------------| 

-----0-1-0---------------|-----0-1-0---------------|-------------------------|| 
---3-------3-2-3---3---3-|---3-------3-2-3---3---2-|-3-----------------------|| 
-3---------------3---2---|-1---------------2---2---|---2---2-----------------|| 
-------------------------|-------------------------|-----3---0-3---0--0------|| 
-------------------------|-------------------------|-------------0-----------|| 
-------------------------|-------------------------|-------------------------|| 
	  

Search Paypal
auto scroll beats size up size down change color hide chords drawings
tab show chords e-chords YouTube Clip e-chords hide all tabs e-chords go to top tab