Johann Sebastian Bach

home > Johann Sebastian B...

Allegro (from Violin Sonata No 2 In Am - Bwv 1003) Tab

Johann Sebastian Bach

Difficulty: BeginnerBeginner

by alexribeiro

tuner correct add songbook print version text version save to e-mail
chordsukulelecavacokeyboardtabbassdrumsharmonicsflute Guitar Pro
chords

Allegro (from Violin Sonata No 2 In Am - Bwv 1003)

  		E|--------5---------------5---------|--------0-------0---------0-------0---| 
B|------5---5-----0-----5---5-----0-|----1h3-------1-------1h3-------1-----| 
G|----5-------7p5-----5-------7p5---|--2---------2-----1-2---------2-----1-| 
D|--7---------------7---------------|----------2-----------------2---------| 
A|--0-------------------------------|--0-----------------------------------| 
E|----------------------------------|--------------------------------------| 

|---------------------------5-----0-------|----------------------------5-----0-------| 
|---0-1-3-1-0-1-3-5-6-5---5---6---------0-|----0-1-3-1-0-1-3-5-6-5---5---6---------0-| 
|-2---------------------7-------7---7p5---|--2---------------------7-------7---7p5---| 
|-----------------------------------------|------------------------------------------| 
|-0-----------------------0---------------|--0-----------------------0---------------| 
|-----------------------------------------|------------------------------------------| 

|-------5-8-------------4-7-------|--------5-8-------------4-7-------| 
|-----5-----5---------5---------0-|------5-----5---------5---------0-| 
|---5---------5-----4-------7p5---|----5---------5-----4-------7p5---| 
|-7-------------7-6---------------|--7-------------7-6---------------| 
|---------------------------------|----------------------------------| 
|---------------------------------|----------------------------------| 

|-----0-3-1-------------1-0-------|--------0-----------0-------------| 
|---1-------1-------0-3-----0-----|------1---3-1-0-------0-----------| 
|-2-----------4-2-0-----------2-0-|----2-----------2-1-----1---------| 
|---------0-----------------------|--3-----------------------2-3-0-2-| 
|-0-----------------------3-------|----------------------------------| 
|-----------------3---------------|------------------0---------------| 

|-----0---------------------------|----------------------------------| 
|---------------------3-----------|------1---------------3-----------| 
|---2p--0-------------------------|----------------------------------| 
|---------3---3-----0---3-2---2---|----3p--2-0---0-----2p--0-----0---| 
|-4---------5---3-2---------3---2-|--0---------2---0---------3p0---2-| 
|---------------------------------|------------------4---------------| 

|-------------------------2-------|--------------------------0-3-2p0-| 
|-------------------1-0-----------|----------------------------------| 
|-----------2-5---------2---2-0---|------------0-4-----4-2-0---------| 
|-2-------2-----2-1-------------4-|--2-------2-----0-----------------| 
|---3---3-------------------------|----2---2---------4---------------| 
|-----5---------------------------|------3---------------------------| 

|-----------2-5-----------------5-|--3-7-5-3-----8---------5-3-2-0---7-------| 
|-4-------4-----------------4-7---|----------7-5-----0-1-----------3---------| 
|---2---2-------5-4-------4-------|------------------------------------0h2h4-| 
|-----4-------------4---4---------|----------------7-----0-------------------| 
|---------------------6-----------|------------------------------------------| 
|---------------------------------|--0---------------------------------------| 

|---3-2-0-----5-3-2-0---2---------------|--------------------------------------| 
|---------3-1---------4---4-------5---3-|----3-----------------0---------------| 
|---------------------------4-2-0-------|------4-------5---4-----0-------2---0-| 
|-----------------------------------4---|--------5-3-2---0---------2-0---------| 
|-3---------0---------2-----------------|--------------------3---------3---2---| 
|---------------------------------------|--0-----------------------------------| 

|-------------------------------------------------|--2-----------------------------| 
|-------------------------------------------------|----1---1-0-----------0-1-------| 
|---------------------------------------2-4-5-4p2-|------------2-0---0-2-----------| 
|-------0-------0-2-3-2-0-2-4-5-7-5-4-5-----------|------1---------4-2-------4---2-| 
|-0-2h3---3p2-3-----------------------------------|--------------------------2-----| 
|-------------------------------------------------|----------------------0---------| 

|-----------------------------------------|----------0-3-7---------0-------8---| 
|-----------------------------1---------3-|--0---0-4---------1---1------10-----| 
|---------2---------4-0---------2-----2---|----0-----------7---2-----10------9-| 
|-2-----2---4-----4-----2h4-5-----4h5-----|------------------------------------| 
|---4h5-------6h7-------------------------|------------------0-----------------| 
|-----------------------------------------|--3---------------------------------| 

|-------7----------------------------|----------0-------------2---------| 
|-----7---7------------7-10-7--------|--------8---3p1-0---0-1---1-------| 
|---8-------9-8------8--------9-8----|----8-9-----------2---------4p2-0-| 
|---------------11-9--------------11-|--9-------------------------------| 
|------------------------------------|----------------------------------| 
|-7----------------------------------|----------------------------------| 

|---------------------------------|--------------------0--------| 
|-----------------------1---------|----0-----------5-4----------| 
|---0-2-5-2-----------2---4-2p0---|--0---0-------2--------------| 
|-4---------5p4-2-1h4-----------4-|--2-----2---4----------------| 
|---------------------------------|----------2-----2------------| 
|---------------------------------|--------------------0--------| 

|---------7---------------7-------0-|--------------------------------------| 
|-------8---8-----------8---8-------|--------0-------0---------0-------0---| 
|*----9-------9-8-9---9-------9-8---|----0h2-------0-------0h2-------0-----| 
|*----------------------------------|--2---------2-----1-2---------2-----1-| 
|---7---------------7---------------|----------2-----------------2---------| 
|---0-------------------------------|--------------------------------------| 

|-----------------------------------------------| 
|---------------------------------2-4-5---------| 
|---------------2-4-5-4-2-4-0-2-4-------4-2-----| 
|-2-4-5-7-5-4-5-----------------------------5-4-| 
|-----------------------------------------------| 
|-0-----------------------0---------------------| 

|-----------------------------------------------|--------0---7---------------------| 
|---------------------------------2-4-5---------|------0---8---8-----7-------------| 
|---------------2-4-5-4-2-4-0-2-4-------4-2-----|----0-----------9-8---8-----2-----| 
|-2-4-5-7-5-4-5-----------------------------5-4-|--2---------------------9-4---5p4-| 
|-----------------------------------------------|----------------------------------| 
|-0-----------------------0---------------------|----------------------------------| 

|-------0---7---------------------|----------------------------------| 
|-----0---8---8-----7-------------|------0-3-1---------------0-------| 
|---0-----------9-8---8-----2-----|----0-------0---------2-5---------| 
|-2---------------------9-4---5p4-|--2-----------4-2---4-------4-2-0-| 
|---------------------------------|----------0-------5---------------| 
|---------------------------------|--0-----------------------3-------| 

|---------------------------------|--------------2-----------------------| 
|-------0-----------0-------------|----------0-5---3-5-1-5-3-1-----------| 
|-----0---2p0---------------------|--------0-------------------4-2-4-0-2-| 
|---2---------4-2-1---4p1---------|----2h4-------------------------------| 
|-3---------------2-------2-3-0-2-|--------------------0-----------------| 
|---------------------------------|--3-----------------------------------| 

|-------------0---------------3-5-----|----3---------------3-------------| 
|-----------3---1-3-0-------3-----7-8-|--5---5-0-1-----1-3---3---0-----0-| 
|---------2-----------0h2-4-----------|--------------0---------2-----0---| 
|-4-0h2-4-----------------------------|------------2---------------0-----| 
|-5-----------------------------------|--3---------------2---------------| 
|-------------------3-----------------|----------------------------------| 

|---5-------2-3-5-----3-------------|------3---------------1-----------| 
|-----------------------3-----------|----1---------------0-------------| 
|-5---5-----------5-4-----4-0-2---0-|--------3-2---2---------2-0---0---| 
|-------7-0---------------------3---|--2---------3---2-0---------2---0-| 
|-0---------------------------------|----------------------------------| 
|-------------------3---------------|----------------------------------| 

|-----0---------------------------|----------------------------------| 
|---------------------3-----------|----------------------------------| 
|---2p--0-----------0-------------|--0-------0---2---3-------3---5---| 
|---------3p0-3---------3-2---3p0-|----2---2---2---3---5---5---5---5-| 
|-3-------------3-2---------3-----|------3---------------7-----------| 
|---------------------------------|----------------------------------| 

|---------1---5-----------3---7---|----------5---8-----------7---10----| 
|-------1---3-----------3---5-----|--------5---6---5-------8---8-------| 
|-2---2---------5-4---4---------7-|--5---5-----------7---7----------10-| 
|---3---------------5-------------|----7---------------9---------------| 
|---------------------------------|------------------------------------| 
|---------------------------------|------------------------------------| 

|-0-3-1-0-1-3-5-------0-1-3-----------1-----------|--0-----------------------------------| 
|---------------0-1-3---------0-1-3-5---------1-3-|------------------3---------3---------| 
|---------------------------2-----------0-2-4-----|------------0-2-----------4---5-4-2-0-| 
|-------------3-----------2-----------0-----------|------0-2-3-----3---3---3-------------| 
|-------------------------------------------------|----3---------------------------------| 
|-------------------------------------------------|----------------------3---------------| 

|---------------------0-----------------|--------------------------------------| 
|---------1-----1-0-1---1---------------|------2---2---5-----3-----------------| 
|-------------------------0-----0-------|----0---0---0---0-----2-------2-------| 
|-3-2p0-2-----0-------------3-2---2-----|------------------3-----3-2-----3-----| 
|-------------------3---------------3-1-|--0-------------------------5-----5-3-| 
|-----------3---------------------------|--------------------------------------| 

|-------------2-----0-----------------| 
|-----4---4-----------0-------0-------| 
|---2---2---2---2-1-----1-------1-----| 
|-----------------2-------4-2-----2-0-| 
|-2-----------------------------------| 
|-------------------------------------| 

|---0-------------------------------------------------| 
|-----3p1-0-1-3-1---------0---------------------------| 
|-----------------4-2-1h2-----2-----------------------| 
|-------------------------------5p3-2-3-5-3-2p0---0h2-| 
|-3-------------------------4-------------------4-----| 
|-----------------------------------------------------| 

|---1p0-----------------0-----------------|----------------7-----------1-----------| 
|-------3-1-0-3-----------3-1-----1-------|----3---------3---3-1-----1---0-------5-| 
|---------------0-2h4---------4-2-----0h2-|------5-4-2-----------2h4-------0h2-4---| 
|-0---------------------------------3-----|------------6---------------------------| 
|---------------------3-------------------|--2-----------------0-------------------| 
|-----------------------------------------|------------------------------3---------| 

|-------------------1-4-0-2-4-7-10p7-------7-|--8-12p8---------10---8---8p5-------7---5-| 
|---------2-3-0-1-3------------------9-5-9---|---------10-8-----------------6-5---------| 
|-2---0-2------------------------------------|--------------10----9---7---------7---5---| 
|---3----------------------------------------|------------------------------------------| 
|--------------------------------------------|------------------------------------------| 
|-1-------------------0----------------------|--0---------------------0-----------------| 

|---------------------------1p0-------|--------------------------------------| 
|---6p3-------3---3-----0-3-----3-1-0-|--1---------1p0-----------------------| 
|-4-----4-2-1---------1-----1---------|----1-2---------2-1-2-----2-----------| 
|---------------4---2-------0---------|--------1-2-----------3h5---3-2-0-----| 
|-------------------------------------|--0-----------------0-------------3-2-| 
|-0-------------------------0---------|--------------------------------------| 

|-------------------------------------1---|----------------4-5-7-----------5-------5-4-| 
|-----------------------------------0-----|------0-1-3-1-0-----------5h7h8-------0-----| 
|-------1-2-----------------------------2-|--1h2-----------------7-5---------5---------| 
|---2h4-----2-0-----------0-2-3-2-0-------|--2-----------------------------------------| 
|-3-------------3-2-0-2h3-----------------|------------------------0-----------7-------| 
|-----------------------------------------|--------------0-------------------------0---| 

|-----3-0-----2-------1-------0---|--------------5-------7-5-4-2-----| 
|---2-------3---3---3---3---2---2-|------5-----3---3-------------5-3-| 
|-2-------2-------1-------0-------|----2---2-----------7-------------| 
|---------------------------------|--4-------3-----------------------| 
|-0-------0-------0-------0-------|--0-------0-----------------------| 
|---------------------------------|------------------0---------------| 

|---0-----------5-4-5---------|| 
|-1---1-------3-----5---------|| 
|-------2---4-------5--------*|| 
|---------2------------------*|| 
|-0-----------------0---------|| 
|---------------0-------------|| 
	  

Search Paypal
auto scroll beats size up size down change color hide chords drawings
tab show chords e-chords YouTube Clip e-chords hide all tabs e-chords go to top tab