Johan Sebastian Bach

Gavote II

Johan Sebastian Bach

tabs Advanced advanced

by  VALLIM GUITAR

save to print version add songbook text version e-mail correct tuner
chordsukulelecavacokeyboardtabbassdrumsharmonicaflute Guitar Pro
close

there isn't a video lesson for this song

chords

Gavote II

	  		|-----------------|----------------------------| 
|-------5-6-5---3-|-5----3---1-------3-1-0-----| 
|-9-7-------------|-2----------4-5-----------2-| 
|-7-------0-------|----------------------------| 
|-----------------|----0-----------------------| 
|-----------------|------------4-------0-------| 
 
 
                                                                     2/4 
  |---------------------------------|---------------------------------|-------| 
|-----------------5-3---5-6-5---3-|-5-3---1-0-1---3-----------------|-------| 
|-1-2---4-------4-----------------|-----------------5-4---2-1-2---4-|-------| 
|-----------6---------------------|---------0-------2---------------|-7-----| 
|---------5-----------------------|---------------------------------|-------| 
|-0---------------8-------7-------|-8-------------------------------|-5--5--| 
 
 
                   |-----------------|----------------------------| 
|-------5-6-5---3-|-5----3---1-------3-1-0-----| 
|-9-7-------------|-2----------4-5-----------2-| 
|-7-------0-------|----------------------------| 
|-----------------|----0-----------------------| 
|-----------------|------------4-------0-------| 
 
 
                                                                     2/4 
  S S S S S S S S S S S S S S S S   S S S S S S S S S S S S S S S S   Q  Q 
|---------------------------------|---------------------------------|-------| 
|-----------------5-3---5-6-5---3-|-5-3---1-0-1---3-----------------|-------| 
|-1-2---4-------4-----------------|-----------------5-4---2-1-2---4-|-------| 
|-----------6---------------------|---------0-------2---------------|-7-----| 
|---------5-----------------------|---------------------------------|-------| 
|-0---------------8-------7-------|-8-------------------------------|-5--5--| 
 
 
                   4/4 
  S S S S S S S S   Q  S S S S S S S S S S S S 
|-----------------|----------------------------| 
|-----------------|----------5-6-5---3-5-3---1-| 
|-5-4---5-7-5---4-|-5----7---------------------| 
|-7-------6-------|-7----------0---------------| 
|-----------------|----7-----------------------| 
|-----------------|--------------------8-------| 
 
 
  S S S S S S S S  S  S S  S  S S S S    S  S S S S S S S S S S S S S S S 
|-------------------------------------|-----------8-7---5-----------------| 
|---1---3-------3------------10-8---6-|-------------------8-7---5-4-5---7-| 
|-4---------4-----12-11---12----------|-12-11---9-------------------------| 
|---------5---------------------------|-----------------------------------| 
|---------2---------------------------|-----------------------------------| 
|-3---------------12---------11-------|-12--------5-------7-------7-------| 
 
 
  S S S S S S S S S S S S S S S S   Q  S S S S S S S S S S S S 
|---------------------------------|-----------------------------| 
|-5---------------5-3---5-6-5---3-|-5----3---1-------3----------| 
|---------------------------------|-2----------4-5-----5-4---2--| 
|-------------------------0-------|-----------------------------| 
|---7---5-3-5---------------------|----0------------------------| 
|-0-------------7-5---------------|------------4-------5--------| 
 
 
  S S S S S S S S S S S S S S S S   S S S S S S S S S S S S S S S S 
|---------------------------------|---------------------------------| 
|-----------------5-3---5-6-5---3-|-5-3---1-0-1---3-----------------| 
|-1-2---4-------4-----------------|-----------------5-4---2-1-2---4-| 
|-----------6---------------------|---------0-------2---------------| 
|---------5-----------------------|---------------------------------| 
|-0---------------7-------7-------|-8-------------------------------| 
 
 
  S S S S S S S S S S S S S S S S    Q   S S S S S S S S S S S S 
|-----------------------0-5-7-----|----------------1---3----------| 
|-------------------1-----------9-|-10-----8---6-5-------6-5---3--| 
|-2---------------2---------------|-------------------------------| 
|---2-----------2-----------------|-------------------------------| 
|-------3-0-3---------------------|-------------------------------| 
|---------------------------------|-13--10-------3-------4--------| 
 
 
  S S S S S S S S S S S S S S S S   S S S S S S S S S S S S S S S S 
|---------------------------------|---------------------------------| 
|-2-3---5-------2-3-2---3-5-3---2-|-3-1---------------2---3-5-3---2-| 
|---------2-4---------------------|-------3-2-4---5-3---------------| 
|---------------------------------|---------------------------------| 
|---------------------------------|---------------------------------| 
|-5-------3-------1---------------|---------2-------3---------------| 
 
 
  |---------------------------------|-----------------5-3---1---------| 
|-3-----------------------5-3---2-|---3---5-6-5---3---------5-3---2-| 
|---2---0-----------6---7---------|---------------------------------| 
|---------4-5---7-5---------------|-6-------------------------------| 
|---------0-----------------------|-2-------------------------------| 
|-----------------6---------------|-----------------0-------5-------| 
 
 
  |---------------------------------------|------------------------------------| 
|-3-5---6-5-6------9-10---12-10-12------|-10-8---6-5-3---1-------------------| 
|---------------7--------------------13-|------------------10-9---7----4---2-| 
|-0-------------------------------------|---------------------------10-------| 
|---------------------------------------|----------------------------6-------| 
|-----------------10---------10---------|--8---------------10----------------| 
 
 
                                                                     2/4 
  |---------------------------------|---------------------------------|-------*| 
|-----------------5-3---5-6-5---3-|-5-3---1-0-1---3-----------------|-------*| 
|-1-2---4-------4-----------------|-----------------5-4---2-1-2---4-|-------*| 
|-2---------6---------------------|---------0-------2---------------|-7-----*| 
|---------5-----------------------|---------------------------------|-------*| 
|-----------------8-------7-------|-8-----------------------0-------|-5--5--*| 
 
 
Transcrito por Júlio Vallim 
 

		  

See also:

tabs Vanilla Ice - Ice ice baby (intro) tabs The Kooks - she?s move in her own way tabs Epica - Run For A Fall tabs The Kooks - Naive tabs MC Hammer - Can't Touch This tabs Nino Rota - O Poderoso Chefăo
e-chords

Other versions:

tabs Johan Sebastian Bach - Gavote II
auto scroll beats size up size down change color hide chords drawings
tab show chords e-chords YouTube Clip e-chords hide all tabs e-chords go to top tab

share