Joe Walsh

Lifes been good

Joe Walsh

tabs Expert expert

by  LOSERCOMET

save to print version add songbook text version e-mail correct tuner
chordsukulelecavacokeyboardtabbassdrumsharmonicaflute Guitar Pro
close

there isn't a video lesson for this song

chords

Lifes been good

	  		
Standard Tuning

e|-----------------------------------------------------|   
B|-----------------------------------------------------|   
G|--------------------2----------------2---2-2---------|   
D|--------------------2--------2-----------2-2---------|   
A|--2b3-3r2-0--2/4------0-2/4-----4--------0-0---------|   
E|-----------------------------------------------------|   
   
   
e|------------------------------------------------------|   
B|--------------------------------------3-3-3-----------|   
G|---------------------2----------------2-2-2---2-2-2---|   
D|---------------------2--------2----0--0-0-0---2-2-2---|   
A|--2b3-3r2-0--2/4-------0-2/4----4-------------0-0-0---|   
E|------------------------------------------------------|   
   
   
e|------------------------------------------------------|   
B|------------------------------------------------------|   
G|------------------------------2--2-2------------------|   
D|-------------------------2-------2-2------------------|   
A|--2b3-2b3-2b3r2-0--0-2/4---4-----0-0------------------|   
E|------------------------------------------------------|   
   
   
e|------------------------------------------------------|   
B|----------------------------------------3-3-3------2--|   
G|----------------------------------------2-2-2------2--|   
D|-----------------------2-------2----0---0-0-0------2--|   
A|---2b3--3r2--0--2/4------0-2/4----4----------------0--|   
E|------------------------------------------------------|   
   
   
Then after 8 or 16 bars the acoustic guitar comes in with :   
   
e|-5-5-5---3-3-3--1-1----5-5-5---3-3-3--1-1----5-5-5---3-3-3--0-0-0-0---|   
B|-6-6-6---5-5-5--1-1----6-6-6---5-5-5--1-1----5-5-5---3-3-3--1-1-0-0h1-|   
G|-5-5-5---5-5-5--2-2----5-5-5---5-5-5--2-2----5-5-5---4-4-4--2-2-0-0h2-|   
D|----------------------------------------------------------------------|   
A|----------------------------------------------------------------------|   
E|----------------------------------------------------------------------|   
   
Then a little lead in on the electric:   
   
e|--------------|   
B|--------------|   
G|--------------|   
D|------0-2-3---|   
A|---3----------|   
E|--------------|   
     
b = bend up   
r = release bend   
/ = slide up   

And the singing starts here!   

		  

See also:

tabs Creedence Clearwater Revival - Green Rivier tabs Vinnie Moore - The Maze tabs Jimi Hendrix - Purple Haze tabs Creedence Clearwater Revival - Keep On Chooglin tabs Player - Baby Come Back tabs Jimi Hendrix - Voodoo Child (Slight Return)
e-chords

Other versions:

tabs Joe Walsh - Lifes been good
auto scroll beats size up size down change color hide chords drawings
tab show chords e-chords YouTube Clip e-chords hide all tabs e-chords go to top tab

share