Joćo de Barro

Valsa Da Despedida

Joćo de Barro

tabs

by  ACELOT

save to print version add songbook text version e-mail correct tuner
chordsukulelecavacokeyboardtabbassdrumsharmonicaflute Guitar Pro
close

there isn't a video lesson for this song

chords

Valsa Da Despedida

	  		

e|--------------2-0-----0---2-0---------2/5-5--7---7-5-----------0-----0------|  
B|----3---2-3-----0---3-2---2-2---3---3--------------7---7-7-----0---3-2------|  
G|--2-------------0-----0---0-0----------------0-----7-----7---7-0-----0------|  
D|----0-----0---------------------0-------------------------------------------|  
A|----------------------0----------------------------5-----5-----------0------|  
E|----------------0----------------------------------------------0------------|   



e|--2-0-----------------2/5--5---10-------------------------------------------|  
B|--2-2---3---0-0-----3----------7--------------------------------------------|  
G|--0-0---------0---2------------7--------------------------------------------|  
D|--------0-----2-----0----------0--------------------------------------------|  
A|----------------------------------------------------------------------------|  
E|--------------0-------------------------------------------------------------|  

		  

See also:

tabs Palavra Cantada - Eu tabs Fernando Sanini - Pela Vida tabs Tio San - O Nada É Tudo tabs Joćo de Barro - Valsa Da Despedida tabs Phill Veras - Sorriso Ao Sono tabs Banda New Hit - Senta Com Vontade
e-chords

Other versions:

tabs Joćo de Barro - Valsa Da Despedida
auto scroll beats size up size down change color hide chords drawings
tab show chords e-chords YouTube Clip e-chords hide all tabs e-chords go to top tab

share