JJ Cale

home > JJ Cale

Thirteen Days Tab

JJ Cale

Difficulty: BeginnerBeginner

by tarikike

tuner correct add songbook print version text version save to e-mail
chordsukulelecavacokeyboardtabbassdrumsharmonicsflute Guitar Pro
chords

Thirteen Days

  		 Intro 
  Q.=66 
  A5 
 6/8 
  Gtr I 
  e   E   E   S E.     E     e S S E   Q.           Q.         E S E. 
|--------------------------|----------------------|--------------5---------| 
|--------------------------|----------------------|----------------5-------| 
|-7b9---------7p5------7---|-5-7p5----------------|------------------------| 
|--------------------------|-------7---7----------|------------------------| 
|--------------------------|----------------------|------------------------| 
|--------------------------|----------------------|------------------------| 
| 
| Gtr II 
| E   S S S S E    S S S S   E S S S S E  S S S S   E  S S S S E S S  S S 
|--------------------------|----------------------|------------------------| 
|--------------------------|----------------------|------------------------| 
|-2---2-2-2-2-2----2-2-2-2-|-2-2-2-2-2-2--2-2-2-2-|-2--2-2-2-2-2-2-2--2-2--| 
|-2---2-2-2-2-2----2-2-2-2-|-2-2-2-2-2-2--2-2-2-2-|-2--2-2-2-2-2-2-2--2-2--| 
|-0---0-0-0-0-0----0-0-0-0-|-0-0-0-0-0-0--0-0-0-0-|-0--0-0-0-0-0-0-0--0-0--| 
|--------------------------|----------------------|------------------------| 


  E E   S S Q.           Q.         E E   E       E e   e     S E.     +E 
|-5-----7h9------------|------------------------|----------------------------| 
|----------------------|------------------------|----------------------------| 
|----------------------|--------------5---7b9---|-7-5---7b9---7s9------(9)---| 
|----------------------|------------7-----------|----------------------------| 
|----------------------|------------------------|----------------------------| 
|----------------------|------------------------|----------------------------| 
| 
| E S S S S E  S S S S   E  S S S S E S S S   S   E S S S   S E    S S  S  S 
|----------------------|------------------------|----------------------------| 
|----------------------|------------------------|----------------------------| 
|-2-2-2-2-2-2--2-2-2-2-|-2--2-2-2-2-2-2-2-2---2-|-2-2-2-2---2-2----2-2--2--2-| 
|-2-2-2-2-2-2--2-2-2-2-|-2--2-2-2-2-2-2-2-2---2-|-2-2-2-2---2-2----2-2--2--2-| 
|-0-0-0-0-0-0--0-0-0-0-|-0--0-0-0-0-0-0-0-0---0-|-0-0-0-0---0-0----0-0--0--0-| 
|----------------------|------------------------|----------------------------| 


                                                     $ 
  S E.     E   E  E    E      E  e    e   Q. 
|--------------------------|-------------------------| 
|--------------------------|-------------------------| 
|---9s====11s==9-11s==12s==|=14-12---11---9----------| 
|-7------------------------|-------------------------| 
|--------------------------|-------------------------| 
|--------------------------|-------------------------| 
| 
| E   S S  S S E  S S  S S    E  S S  S S E  S S S S 
|--------------------------|-------------------------| 
|--------------------------|-------------------------| 
|-2---2-2--2-2-2--2-2--2-2-|--2--2-2--2-2-2--2-2-2-2-| 
|-2---2-2--2-2-2--2-2--2-2-|--2--2-2--2-2-2--2-2-2-2-| 
|-0---0-0--0-0-0--0-0--0-0-|--0--0-0--0-0-0--0-0-0-0-| 
|--------------------------|-------------------------| 


   1st - 3rd Verses 
    A5        C5        G5 
   9/8 
    E S S S S E S S S S E S S S S 
||--------------------------------| 
||o-------------------------------| 
||--2-2-2-2-2---------------------| 
||--2-2-2-2-2-5-5-5-5-5-----------| 
||o-0-0-0-0-0-3-3-3-3-3-5-5-5-5-5-| 
||----------------------3-3-3-3-3-| 
| 
|   E S S S S E S S S S E S S S S 
||--------------------------------| 
||o-------------------------------| 
||--2-2-2-2-2---------------------| 
||--2-2-2-2-2-5-5-5-5-5-----------| 
||o-0-0-0-0-0-3-3-3-3-3-5-5-5-5-5-| 
||----------------------3-3-3-3-3-| 


  A5 
 6/8 
  E E    E   S  E.      +E      E E   E   +S  S E   E 
|-----------------------------|---5---------------------| 
|---8h==10---8h10------(10)s==|=7-----5---(5)-5---------| 
|-----------------------------|-----------------7---5---| 
|-----------------------------|-------------------------| 
|-7---------------------------|-------------------------| 
|-5---------------------------|-------------------------| 
| 
| E S S  S S E     S S   S  S   E S S S S  E    S S S S 
|-----------------------------|-------------------------| 
|-----------------------------|-------------------------| 
|-2-2-2--2-2-2-----2-2---2--2-|-2-2-2-2-2--2----2-2-2-2-| 
|-2-2-2--2-2-2-----2-2---2--2-|-2-2-2-2-2--2----2-2-2-2-| 
|-0-0-0--0-0-0-----0-0---0--0-|-0-0-0-0-0--0----0-0-0-0-| 
|-----------------------------|-------------------------| 


            C5        G5 
 9/8 
  E S S S S E S S S S E S S S S 
|-------------------------------| 
|-------------------------------| 
|-2-2-2-2-2---------------------| 
|-2-2-2-2-2-5-5-5-5-5-----------| 
|-0-0-0-0-0-3-3-3-3-3-5-5-5-5-5-| 
|---------------------3-3-3-3-3-| 
| 
| E S S S S E S S S S E S S S S 
|-------------------------------| 
|-------------------------------| 
|-2-2-2-2-2---------------------| 
|-2-2-2-2-2-5-5-5-5-5-----------| 
|-0-0-0-0-0-3-3-3-3-3-5-5-5-5-5-| 
|---------------------3-3-3-3-3-| 


                                                    Chorus 
                                                    1. 
  A5                                                 C5 
 6/8 
  E S S E   +Q.           S S Q       S S Q          Q.         +Q      E 
|-----------------------|-------------------------||------------------------| 
|-----------------------|-------------------------||------------------------| 
|-------5---(5)---------|-------------------------||--------------------5---| 
|---5h7-----------------|-----5-----------5-------||-7----------(7)---------| 
|-7---------------------|-5h7---------5h7---------||------------------------| 
|-5---------------------|-------------------------||------------------------| 
| 
| E S S S S  E  S S S S   E   S S S S E   S S S S    E  S S S S  E  S S S S 
|-----------------------|-------------------------||------------------------| 
|-----------------------|-------------------------||------------------------| 
|-2-2-2-2-2--2--2-2-2-2-|-2---2-2-2-2-2---2-2-2-2-||------------------------| 
|-2-2-2-2-2--2--2-2-2-2-|-2---2-2-2-2-2---2-2-2-2-||-5--5-5-5-5--5--5-5-5-5-| 
|-0-0-0-0-0--0--0-0-0-0-|-0---0-0-0-0-0---0-0-0-0-||-3--3-3-3-3--3--3-3-3-3-| 
|-----------------------|-------------------------||------------------------| 


  A5                        C5                      A5 
  E E   E   S S +Q          Q     S S S S E   E     E    E   E   Q. 
|-------------------------|-----------------------|--------------------------| 
|-------------------------|-----------------------|--------------------------| 
|-------5---7s9-(9)-------|-----------5-5-7-------|-7pb8r7---5---------------| 
|-5h7---------------------|-------7-7-------------|--------------7-----------| 
|-------------------------|-----------------------|--------------------------| 
|-------------------------|-----------------------|--------------------------| 
| 
| E S S S S E    S  S S S   E S S S S E   S S S S   E    S S S S E  S S S S 
|-------------------------|-----------------------|--------------------------| 
|-------------------------|-----------------------|--------------------------| 
|-2-2-2-2-2-2----2--2-2-2-|-----------------------|-2----2-2-2-2-2--2-2-2-2--| 
|-2-2-2-2-2-2----2--2-2-2-|-5-5-5-5-5-5---5-5-5-5-|-2----2-2-2-2-2--2-2-2-2--| 
|-0-0-0-0-0-0----0--0-0-0-|-3-3-3-3-3-3---3-3-3-3-|-0----0-0-0-0-0--0-0-0-0--| 
|-------------------------|-----------------------|--------------------------| 


  C5                    A5                              C5        G5 
                                             9/8 
  E S S S S E S S S S   E S S S S E S S S S   E S S S S E S S S S E S S S S 
|---------------------|---------------------|--------------------------------| 
|---------------------|---------------------|--------------------------------| 
|---------------------|---------------------|-2-2-2-2-2----------------------| 
|-5-5-5-5-5-5-5-5-5-5-|-2-2-2-2-2-2-2-2-2-2-|-2-2-2-2-2-5-5-5-5-5------------| 
|-3-3-3-3-3-3-3-3-3-3-|-0-0-0-0-0-0-0-0-0-0-|-0-0-0-0-0-3-3-3-3-3-5-5-5-5-5--| 
|---------------------|---------------------|---------------------3-3-3-3-3--| 
| 
| E S S S S E S S S S   E S S S S E S S S S   E S S S S E S S S S E S S S S 
|---------------------|---------------------|--------------------------------| 
|---------------------|---------------------|--------------------------------| 
|---------------------|-2-2-2-2-2-2-2-2-2-2-|-2-2-2-2-2----------------------| 
|-5-5-5-5-5-5-5-5-5-5-|-2-2-2-2-2-2-2-2-2-2-|-2-2-2-2-2-5-5-5-5-5------------| 
|-3-3-3-3-3-3-3-3-3-3-|-0-0-0-0-0-0-0-0-0-0-|-0-0-0-0-0-3-3-3-3-3-5-5-5-5-5--| 
|---------------------|---------------------|---------------------3-3-3-3-3--| 


  A5 
 6/8 
   S  S   Q         +Q. 
|-------------------------------| 
|-------------------------------| 
|--------14--------(14)---------| 
|-12h14-(14)-------(14)---------| 
|-------------------------------| 
|-------------------------------| 
| 
|  E      S  S S S   E  S S S S 
|-------------------------------| 
|-------------------------------| 
|--2------2--2-2-2---2--2-2-2-2-| 
|--2------2--2-2-2---2--2-2-2-2-| 
|--0------0--0-0-0---0--0-0-0-0-| 
|-------------------------------| 


                             Chorus 
                             2. 
                  To Coda 
                              C5        A5 
   +H.                        E S S S S E S S S S 
|--------------------------||---------------------| 
|-------------------------o||---------------------| 
|-(14)---------------------||---------------------| 
|-(14)---------------------||-5-5-5-5-5-2-2-2-2-2-| 
|-------------------------o||-3-3-3-3-3-0-0-0-0-0-| 
|--------------------------||---------------------| 
| 
|   E  S S S S E S S S S      E S S S S E S S S S 
|--------------------------||---------------------| 
|-------------------------o||---------------------| 
|---2--2-2-2-2-2-2-2-2-2---||---------------------| 
|---2--2-2-2-2-2-2-2-2-2---||-5-5-5-5-5-2-2-2-2-2-| 
|---0--0-0-0-0-0-0-0-0-0--o||-3-3-3-3-3-0-0-0-0-0-| 
|--------------------------||---------------------| 


  C5        A5          C5        A5          C5        A5 
  Gtrs I, II 
  E S S S S E S S S S   E S S S S E S S S S   E S S S S E S S S S 
|---------------------|---------------------|---------------------| 
|---------------------|---------------------|---------------------| 
|---------------------|---------------------|---------------------| 
|-5-5-5-5-5-2-2-2-2-2-|-5-5-5-5-5-2-2-2-2-2-|-5-5-5-5-5-2-2-2-2-2-| 
|-3-3-3-3-3-0-0-0-0-0-|-3-3-3-3-3-0-0-0-0-0-|-3-3-3-3-3-0-0-0-0-0-| 
|---------------------|---------------------|---------------------| 


  C5        A5          C5        A5                    C5        G5 
                                             9/8 
  E S S S S E S S S S   E S S S S E S S S S   E S S S S E S S S S E S S S S 
|---------------------|---------------------|--------------------------------| 
|---------------------|---------------------|--------------------------------| 
|---------------------|---------------------|-2-2-2-2-2----------------------| 
|-5-5-5-5-5-2-2-2-2-2-|-5-5-5-5-5-2-2-2-2-2-|-2-2-2-2-2-5-5-5-5-5------------| 
|-3-3-3-3-3-0-0-0-0-0-|-3-3-3-3-3-0-0-0-0-0-|-0-0-0-0-0-3-3-3-3-3-5-5-5-5-5--| 
|---------------------|---------------------|---------------------3-3-3-3-3--| 


  A5 
 6/8 
  E S S S S E S S S S   E S S S S E S S S S 
|---------------------|---------------------|| 
|---------------------|---------------------|| 
|---------------------|---------------------|| 
|-2-2-2-2-2-2-2-2-2-2-|-2-2-2-2-2-2-2-2-2-2-|| 
|-0-0-0-0-0-0-0-0-0-0-|-0-0-0-0-0-0-0-0-0-0-|| 
|---------------------|---------------------|| 
| 
| Gtr II 
| E S S S S E S S S S   E S S S S E S S S S 
|---------------------|---------------------|| 
|---------------------|---------------------|| 
|-2-2-2-2-2-2-2-2-2-2-|-2-2-2-2-2-2-2-2-2-2-|| 
|-2-2-2-2-2-2-2-2-2-2-|-2-2-2-2-2-2-2-2-2-2-|| 
|-0-0-0-0-0-0-0-0-0-0-|-0-0-0-0-0-0-0-0-0-0-|| 
|---------------------|---------------------|| 


 Guitar Solo 
  A5 
   E.      S      +E     +Q. 
|------------------------------------| 
|-15b17---15b17==(15)---(15)---------| 
|------------------------------------| 
|------------------------------------| 
|------------------------------------| 
|------------------------------------| 
| 
|  E    S  S       S  S   E  S S S S 
|------------------------------------| 
|------------------------------------| 
|--2----2--2-------2--2---2--2-2-2-2-| 
|--2----2--2-------2--2---2--2-2-2-2-| 
|--0----0--0-------0--0---0--0-0-0-0-| 
|------------------------------------| 


                                               C5                 G5 
                           9/8 
   +H.                       E      +E     E   E  E        +S   S E.    S    E 
|-------------------------|------------------------------------------------------| 
|-(15)r-------------------|-15pb17r(15)p==13-----15pb17r==(15)p13------15b17-----| 
|-------------------------|------------------------------------------------------| 
|-------------------------|------------------------------------------------------| 
|-------------------------|------------------------------------------------------| 
|-------------------------|------------------------------------------------------| 
| 
|   E   S S S S E S S S S    E       S  S  S S E  S     S   S   S E  S  S    S S 
|-------------------------|------------------------------------------------------| 
|-------------------------|------------------------------------------------------| 
|---2---2-2-2-2-2-2-2-2-2-|--2-------2--2--2-2-----------------------------------| 
|---2---2-2-2-2-2-2-2-2-2-|--2-------2--2--2-2-5--5-----5---5---5----------------| 
|---0---0-0-0-0-0-0-0-0-0-|--0-------0--0--0-0-3--3-----3---3---3-5--5--5----5-5-| 
|-------------------------|---------------------------------------3--3--3----3-3-| 


  A5 
 6/8 
  S  S  E    S      +S   Q. 
|---------------------------------------| 
|---15p13---15pb17r(15)-15pb17----------| 
|---------------------------------------| 
|---------------------------------------| 
|---------------------------------------| 
|---------------------------------------| 
| 
| E     S S  S       S   E     S S S S 
|---------------------------------------| 
|---------------------------------------| 
|-2-----2-2--2-------2---2-----2-2-2-2--| 
|-2-----2-2--2-------2---2-----2-2-2-2--| 
|-0-----0-0--0-------0---0-----0-0-0-0--| 
|---------------------------------------| 


                                  C5        G5 
                       9/8 
  E S S S S E S S S S   E S S S S E S S S S  E      +E     E 
|---------------------|----------------------------------------| 
|---------------------|---------------------15pb17r(15)p==13---| 
|---------------------|----------------------------------------| 
|-2-2-2-2-2-2-2-2-2-2-|-2-2-2-2-2-5-5-5-5-5--------------------| 
|-0-0-0-0-0-0-0-0-0-0-|-0-0-0-0-0-3-3-3-3-3--------------------| 
|---------------------|----------------------------------------| 
| 
| E S S S S E S S S S   E S S S S E S S S S  E       S  S  S S 
|---------------------|----------------------------------------| 
|---------------------|----------------------------------------| 
|-2-2-2-2-2-2-2-2-2-2-|-2-2-2-2-2------------------------------| 
|-2-2-2-2-2-2-2-2-2-2-|-2-2-2-2-2-5-5-5-5-5--------------------| 
|-0-0-0-0-0-0-0-0-0-0-|-0-0-0-0-0-3-3-3-3-3--5-------5--5--5-5-| 
|---------------------|----------------------3-------3--3--3-3-| 


  A5 
 6/8 
   |------3-------| 
   E      +E     +E     E    +Q. 
|----------------------------------------| 
|-15b16==(15)r==(15)p==13---(13)---------| 
|----------------------------------------| 
|----------------------------------------| 
|----------------------------------------| 
|----------------------------------------| 
| 
|  E          S      S  S S   E  S S S S 
|----------------------------------------| 
|----------------------------------------| 
|--2----------2------2--2-2---2--2-2-2-2-| 
|--2----------2------2--2-2---2--2-2-2-2-| 
|--0----------0------0--0-0---0--0-0-0-0-| 
|----------------------------------------| 


                             C5 
   +Q.         E  E    E      E E   Q      E    E 
|--------------------------|---------------------------| 
|-(13)----------------13---|-15----------------15b17---| 
|----------------14--------|--------------14-----------| 
|--------------------------|---------------------------| 
|--------------------------|---------------------------| 
|--------------------------|---------------------------| 
| 
|   E  S S S S E  S S  S S    E S S S S E  S S  S    S 
|--------------------------|---------------------------| 
|--------------------------|---------------------------| 
|---2--2-2-2-2-2--2-2--2-2-|---------------------------| 
|---2--2-2-2-2-2--2-2--2-2-|--5-5-5-5-5-5--5-5--5----5-| 
|---0--0-0-0-0-0--0-0--0-0-|--3-3-3-3-3-3--3-3--3----3-| 
|--------------------------|---------------------------| 


  A5 
   E  E    a  E    E  Q 
|-----------------------------| 
|-15-13---15s17---13----------| 
|--------------------14-------| 
|-----------------------------| 
|-----------------------------| 
|-----------------------------| 
| 
|  E  S S     S S  E  S S S S 
|-----------------------------| 
|-----------------------------| 
|--2--2-2-----2-2--2--2-2-2-2-| 
|--2--2-2-----2-2--2--2-2-2-2-| 
|--0--0-0-----0-0--0--0-0-0-0-| 
|-----------------------------| 


  C5 
   E      S  E.         +E    E    E 
|--------------------------------------| 
|-15pb17r15-15b17======(15)r-13---15---| 
|--------------------------------------| 
|--------------------------------------| 
|--------------------------------------| 
|--------------------------------------| 
| 
|  E      S  S     S S   E    S S  S S 
|--------------------------------------| 
|--------------------------------------| 
|--------------------------------------| 
|--5------5--5-----5-5---5----5-5--5-5-| 
|--3------3--3-----3-3---3----3-3--3-3-| 
|--------------------------------------| 


  A5                       C5 
                                                   |-3--| 
   Q.         Q.           Q      E       +E  E    E    S 
|------------------------|-----------------------------12-| 
|------------------------|-------15b17---(15)-----15------| 
|-14---------------------|--------------------------------| 
|------------------------|--------------------------------| 
|------------------------|--------------------------------| 
|------------------------|--------------------------------| 
| 
|  E  S S S S E  S S S S   E S S  S    S   E  S S  S S 
|------------------------|--------------------------------| 
|------------------------|--------------------------------| 
|--2--2-2-2-2-2--2-2-2-2-|--------------------------------| 
|--2--2-2-2-2-2--2-2-2-2-|-5-5-5--5----5---5--5-5--5-5----| 
|--0--0-0-0-0-0--0-0-0-0-|-3-3-3--3----3---3--3-3--3-3----| 
|------------------------|--------------------------------| 


  A5                                         C5         G5 
                                  9/8 
  |----4:3-----| 
  E  E    E    E    E  S  E.       E S S S S E E    E    E  E    E 
|---12--------12---15-15s17------|----------------------12-----------| 
|--------15----------------------|-------------------------13---15---| 
|--------------------------------|-----------------14----------------| 
|--------------------------------|-2-2-2-2-2-5-----------------------| 
|--------------------------------|-0-0-0-0-0-3-----------------------| 
|--------------------------------|-----------------------------------| 
| 
| E    S  S S    S  E  S  S  S S   E S S S S E S S  S S  E  S S  S S 
|--------------------------------|-----------------------------------| 
|--------------------------------|-----------------------------------| 
|-2----2--2-2----2--2--2--2--2-2-|-2-2-2-2-2-------------------------| 
|-2----2--2-2----2--2--2--2--2-2-|-2-2-2-2-2-5-5-5--5-5--------------| 
|-0----0--0-0----0--0--0--0--0-0-|-0-0-0-0-0-3-3-3--3-3--5--5-5--5-5-| 
|--------------------------------|-----------------------3--3-3--3-3-| 


                                             D.S. al Coda 
  A5 
 6/8 
   Q.          +E   S  E.        +Q      S S S S S S E 
|-----------------------------|---------------------------|| 
|------------------15-17------|-(17)----------------------|| 
|-14----------(14)------------|----------4-2--------------|| 
|-----------------------------|--------------4-2-0h2------|| 
|-----------------------------|----------------------0----|| 
|-----------------------------|---------------------------|| 
| 
|  E  S S S S   E   S  S  S S     E  S S S S E   S S S S 
|-----------------------------|---------------------------|| 
|-----------------------------|---------------------------|| 
|--2--2-2-2-2---2---2--2--2-2-|---2--2-2-2-2-2---2-2-2-2--|| 
|--2--2-2-2-2---2---2--2--2-2-|---2--2-2-2-2-2---2-2-2-2--|| 
|--0--0-0-0-0---0---0--0--0-0-|---0--0-0-0-0-0---0-0-0-0--|| 
|-----------------------------|---------------------------|| 


 Outro 
  & 
                 C5        A5 
 9/8 
  a a H.                   +Q. 
|--------------------------------------| 
|-----5--------------------(5)---------| 
|---5----------------------------------| 
|-5------------------------------------| 
|--------------------------------------| 
|--------------------------------------| 
| 
|     E  S S S S E S S S S  E  S S S S 
|--------------------------------------| 
|--------------------------------------| 
|-----2--2-2-2-2-----------------------| 
|-----2--2-2-2-2-5-5-5-5-5-------------| 
|-----0--0-0-0-0-3-3-3-3-3--5--5-5-5-5-| 
|---------------------------3--3-3-3-3-| 


  A5 
 6/8 
  E S S S S E S S S S   E S S S S E S S S S 
|---------------------|---------------------| 
|---------------------|---------------------| 
|---------------------|---------------------| 
|-2-2-2-2-2-2-2-2-2-2-|-2-2-2-2-2-2-2-2-2-2-| 
|-0-0-0-0-0-0-0-0-0-0-|-0-0-0-0-0-0-0-0-0-0-| 
|---------------------|---------------------| 
| 
| E S S S S E S S S S   E S S S S E S S S S 
|---------------------|---------------------| 
|---------------------|---------------------| 
|-2-2-2-2-2-2-2-2-2-2-|-2-2-2-2-2-2-2-2-2-2-| 
|-2-2-2-2-2-2-2-2-2-2-|-2-2-2-2-2-2-2-2-2-2-| 
|-0-0-0-0-0-0-0-0-0-0-|-0-0-0-0-0-0-0-0-0-0-| 
|---------------------|---------------------| 


            C5        G5          A5 
 9/8                             6/8 
  E S S S S E S S S S E S S S S   E S S S S E S S S S   E S S S S E S S S S 
|-------------------------------|---------------------|---------------------| 
|-------------------------------|---------------------|---------------------| 
|-------------------------------|---------------------|---------------------| 
|-2-2-2-2-2-5-5-5-5-5-----------|-2-2-2-2-2-2-2-2-2-2-|-2-2-2-2-2-2-2-2-2-2-| 
|-0-0-0-0-0-3-3-3-3-3-5-5-5-5-5-|-0-0-0-0-0-0-0-0-0-0-|-0-0-0-0-0-0-0-0-0-0-| 
|---------------------3-3-3-3-3-|---------------------|---------------------| 
| 
| E S S S S E S S S S E S S S S   E S S S S E S S S S   E S S S S E S S S S 
|-------------------------------|---------------------|---------------------| 
|-------------------------------|---------------------|---------------------| 
|-2-2-2-2-2---------------------|-2-2-2-2-2-2-2-2-2-2-|-2-2-2-2-2-2-2-2-2-2-| 
|-2-2-2-2-2-5-5-5-5-5-----------|-2-2-2-2-2-2-2-2-2-2-|-2-2-2-2-2-2-2-2-2-2-| 
|-0-0-0-0-0-3-3-3-3-3-5-5-5-5-5-|-0-0-0-0-0-0-0-0-0-0-|-0-0-0-0-0-0-0-0-0-0-| 
|---------------------3-3-3-3-3-|---------------------|---------------------| 


            C5        G5          A5 
 9/8                             6/8 
  E S S S S E S S S S E S S S S   E S S S S E S S S S   E S S S S E S S S S 
|-------------------------------|---------------------|---------------------| 
|-------------------------------|---------------------|---------------------| 
|-------------------------------|---------------------|---------------------| 
|-2-2-2-2-2-5-5-5-5-5-----------|-2-2-2-2-2-2-2-2-2-2-|-2-2-2-2-2-2-2-2-2-2-| 
|-0-0-0-0-0-3-3-3-3-3-5-5-5-5-5-|-0-0-0-0-0-0-0-0-0-0-|-0-0-0-0-0-0-0-0-0-0-| 
|---------------------3-3-3-3-3-|---------------------|---------------------| 
| 
| E S S S S E S S S S E S S S S   E S S S S E S S S S   E S S S S E S S S S 
|-------------------------------|---------------------|---------------------| 
|-------------------------------|---------------------|---------------------| 
|-2-2-2-2-2---------------------|-2-2-2-2-2-2-2-2-2-2-|-2-2-2-2-2-2-2-2-2-2-| 
|-2-2-2-2-2-5-5-5-5-5-----------|-2-2-2-2-2-2-2-2-2-2-|-2-2-2-2-2-2-2-2-2-2-| 
|-0-0-0-0-0-3-3-3-3-3-5-5-5-5-5-|-0-0-0-0-0-0-0-0-0-0-|-0-0-0-0-0-0-0-0-0-0-| 
|---------------------3-3-3-3-3-|---------------------|---------------------| 


  E E   E   S S Q         E S S S S E S S S S 
|-----------------------|---------------------| 
|-----------------------|---------------------| 
|-------2---4p2---------|---------------------| 
|-2-4-----------2-------|-2-2-2-2-2-2-2-2-2-2-| 
|-----------------------|-0-0-0-0-0-0-0-0-0-0-| 
|-----------------------|---------------------| 
| 
| E S S S S E   S S S S   E S S S S E S S S S 
|-----------------------|---------------------| 
|-----------------------|---------------------| 
|-2-2-2-2-2-2---2-2-2-2-|-2-2-2-2-2-2-2-2-2-2-| 
|-2-2-2-2-2-2---2-2-2-2-|-2-2-2-2-2-2-2-2-2-2-| 
|-0-0-0-0-0-0---0-0-0-0-|-0-0-0-0-0-0-0-0-0-0-| 
|-----------------------|---------------------| 


  E S S S S E S S S S   E S S S S E S S S S 
|---------------------|---------------------*| 
|---------------------|---------------------*| 
|---------------------|---------------------*| 
|-2-2-2-2-2-2-2-2-2-2-|-2-2-2-2-2-2-2-2-2-2-*| 
|-0-0-0-0-0-0-0-0-0-0-|-0-0-0-0-0-0-0-0-0-0-*| 
|---------------------|---------------------*| 
| 
| E S S S S E S S S S   E S S S S E S S S S 
|---------------------|---------------------*| 
|---------------------|---------------------*| 
|-2-2-2-2-2-2-2-2-2-2-|-2-2-2-2-2-2-2-2-2-2-*| 
|-2-2-2-2-2-2-2-2-2-2-|-2-2-2-2-2-2-2-2-2-2-*| 
|-0-0-0-0-0-0-0-0-0-0-|-0-0-0-0-0-0-0-0-0-0-*| 
|---------------------|---------------------*|  
	  

Full key step upFull key step up
Half key step upHalf key step up
Half key step downHalf key step down
Full key step downFull key step down
Search Paypal
auto scroll beats size up size down change color hide chords drawings
tab show chords e-chords YouTube Clip e-chords hide all tabs e-chords go to top tab