Jimmy Page

Dazed And Confused Tab

Jimmy Page

Difficulty: BeginnerBeginner

tuner correct add songbook print version text version save to e-mail
chordsukulelecavacokeyboardtabbassdrumsharmonicsflute Guitar Pro
close

there isn't a video lesson for this song

chords

Dazed And Confused

  		Hi, world 
Does somebody like solo? Try this! the solo part of dazed and confused 
by page. Its realy a challenge, isn't? 
 b  :bend 
 r  :release b 
 X  :rest 
 /\ :slide  
 !9!:Harmonic 
Just hear to the record to get the right timing and the feeling for special  
notes(above). If there are any mistakes, (i dont think so 'cos i got it  
printed) please forgive me! 
!!!One request:!!! 
Could someone tab out for me the solo of  --Since ive been loving you-- ? 
please email to me, yeah! Thanx !  
 
  [email protected] 
 
---------------------------------------------------------------------------- 
 
e:----------------------------------------------------------15\12----15\12---| 
B:---12--12-15\12--------12-15\12----------12-12-15\12-X-12-------12-------12| 
G:14b16------------14b16----------14-14b16-----------------------------------| 
D:---------------------------------------------------------------------------| 
A:---------------------------------------------------------------------------| 
E:---------------------------------------------------------------------------| 
 
 
e:15\12---15\12--15\12------12-15b17-15-12----12-----------------------------| 
B:------12-----12-----12-12-12-------------15-15-15\12-----------------------| 
G:-----------------------------------------------------14\12----12-14-12-14--| 
D:-----------------------------------------------------------14--------------| 
A:---------------------------------------------------------------------------| 
E:---------------------------------------------------------------------------| 
 
 
e:---------------------------------------------------------------------------| 
B:--------15-----------------------------------------------------------------| 
G:12-14b16----16\14\12-14\12---------------------------------!9!b!11!--9b11--| 
D:--------------------------14-12-14-12/14\12----12/14\12--0-----------------| 
A:--------------------------------------------14-----------------------------| 
E:---------------------------------------------------------------------------| 
 
 
e:---------------------------------------------------------------------------| 
B:---------------------------------------------------------------------------| 
G:---7-9-7-7-7\6-6\5-6-7\6-4-6\4\3-4-2-2\0-4-2\0---0-0-0b2--0-0b2-0-0b2-0-0b2| 
D:---------------------------------------------------------------------------| 
A:---------------------------------------------------------------------------| 
E:---------------------------------------------------------------------------| 
 
 
e:---------------------------------------------------------15\12-15-15b12----| 
B:------------------------------------------------------12-------12-12----12-| 
G:--0-0-0b4-0-0b2--0-0b4b4-0-0b2-0-0b4-0-0b3-0-0-b4r0------------------------| 
D:---------------------------------------------------------------------------| 
A:---------------------------------------------------------------------------| 
E:---------------------------------------------------------------------------| 
 
 
e:15\12----15\12----15--15\12-----15--15b17-15-17---15b17-15b17-15-12-----12-| 
B:------12-------12------------12-------------------------------------15-----| 
G:---------------------------------------------------------------------------| 
D:---------------------------------------------------------------------------| 
A:---------------------------------------------------------------------------| 
E:---------------------------------------------------------------------------| 
 
 
e:---------------------------------------------------------------------------| 
B:15\12--------------------------15------------------------------------------| 
G:-------14\12----12-14-12-14/16----16\14\12-14\12---------------------------| 
D:-------------14----------------------------------14-12/14\12----12-12------| 
A:-------------------------------------------------------------14----12/14\12| 
E:---------------------------------------------------------------------------| 
 
 
e:--------------------------------------------------------------------19b21--| 
B:----------------------------17b20---17b19-17b20--17b19-15-15--17-17--------| 
G:---------------------------------------------------------------------------| 
D:---------------------------------------------------------------------------| 
A:/14\12---------10--12-10---------------------------------------------------| 
E:------------12-------------------------------------------------------------| 
 
 
e:19\18--17------------------------------------------------------------------| 
B:----------20-20\17----17-20--17/20\17-----17-20-17/20\17-----17-20-17/20\17| 
G:-------------------19------------------19-----------------19---------------| 
D:---------------------------------------------------------------------------| 
A:---------------------------------------------------------------------------| 
E:---------------------------------------------------------------------------| 
 
 
e:---------------------------------------------------------------------------| 
B:----17-20-17/20\17----17-20-20b22--19b21-21b22-19b20-19b20b22--------20b22b| 
G:-19----------------19------------------------------------------------------| 
D:----------------------------------------------------------------0-0--------| 
A:---------------------------------------------------------------------------| 
E:---------------------------------------------------------------------------| 
 
 
e:-------------------------------------19b22r19----------19b22r19------------| 
B:24r20\17--17-17--20b24r20-17-17-17-17----------17-17-17----------17-17-17--| 
G:---------------------------------------------------------------------------| 
D:---------------------------------------------------------------------------| 
A:---------------------------------------------------------------------------| 
E:---------------------------------------------------------------------------| 
 
 
e:---------------------------------------------------------------------------| 
B:---17-20b23r20--17-17----17b20r17-15-15--15b17r15--------------------------| 
G:----------------------0--17-----------------------12-12----12b14r12-9-9--9-| 
D:---------------------------------------------------------------------------| 
A:---------------------------------------------------------------------------| 
E:---------------------------------------------------------------------------| 
 
 
e:---------------------------------------------------------------------------| 
B:-----------------------------------------------------4\2\0-------------!4!-| 
G:9b11-9b11r9--7--4b6r4--4--4\2\0-2--4\2\0-2--4\2\0-2--4\2\0-2--2--4--2---4--| 
D:-------------0-------------------------------------------------------------| 
A:---------------------------------------------------------------------------| 
E:---------------------------------------------------------------------------| 
 
 
e:---------------------------------------| 
B:----2/4\2\0----------------------------| 
G:----2/4\2\0--0--2\0/2\0/2--------------| 
D:--------------------------4\2\0--------| 
A:--------------------------------4\2\0--| 
E:---------------------------------------| 
 

	  

auto scroll beats size up size down change color hide chords drawings
tab show chords e-chords YouTube Clip e-chords hide all tabs e-chords go to top tab

share with facebook

Search Paypal