Jimmy Buffett

A Pirate Looks At Forty Solo (correct)

Jimmy Buffett

tabs Beginner beginner

save to print version add songbook text version e-mail correct tuner
chordsukulelecavacokeyboardtabbassdrumsharmonicaflute Guitar Pro
close

there isn't a video lesson for this song

chords

A Pirate Looks At Forty Solo (correct)

	  		Tablature Explanation: 
 
h- hammer on   - slide up or down     ~- vibrato 
 
 
Solo: 
 
 
e--3--3-3-5-7~~----3---3-57-7~~--------------------------- 
B--------------------3--------------8--8--8----8-8h10-8---- 
G--4--4-4-5-7~~----4---4-57-7~~----9--9--9----9-9----9---- 
D---------------------------------------10---10------------ 
A---------------------------------------------------------- 
E---------------------------------------------------------- 
 
e------------------------------2---0---3---3--------------- 
B----8-8-7-5-3~~-------3-5-----3---1---3----3-------------- 
G----9-9-7-5-4~~----24---2----4---2---0-----0------------- 
D--10--------------------------4---2---0------0------------ 
A------------------------------2---0---2------------------- 
E--------------------------------------3------------------- 
 

		  

auto scroll beats size up size down change color hide chords drawings
tab show chords e-chords YouTube Clip e-chords hide all tabs e-chords go to top tab

share