Jimi Hendrix Experience

Love Or Confusion

Jimi Hendrix Experience

tabs

save to print version add songbook text version e-mail correct tuner
chordsukulelecavacokeyboardtabbassdrumsharmonicaflute Guitar Pro
close

there isn't a video lesson for this song

chords

Love Or Confusion

	  		|-----------------------------------------------------------------------| 
|-3---------3--3--3---3--3-----3-------3--0-0--0-------------1--0-------| 
|-0------------4--4---4--5---------0---0--0-0----0-4p0-4p0-0------0-----| 
|-0---------5--5--5---------5-------------0-0---------------------------| 
|-----------------------------------------------------------------------| 
|-3----3--3------------------------3------------------------------------| 
 
|-----------------0---0----------------------------------------------| 
|--1---1--1--1----------1-1----1(1)-----1----1--1--------1-----1-----| 
|------0--0--0----------0-2p0--2p0------0h2--2--3--2--0--2--0--0-----| 
|--3---3-----------------------------3--3----------------------0-----| 
|--------------------------------------------------------------------| 
|----------------------------------------------------------------1---| 
 

		  

See also:

tabs Simon & Garfunkel - Sounds of silence tabs R.E.M. - Everybody Hurts tabs Guns N' Roses - Knockin' On Heaven's Door tabs John Mayer - Belief tabs The Wonders - That Thing You Do tabs Cheap Trick - The Flame
e-chords

Other versions:

tabs Jimi Hendrix Experience - Love Or Confusion
auto scroll beats size up size down change color hide chords drawings
tab show chords e-chords YouTube Clip e-chords hide all tabs e-chords go to top tab

share