Jimi Hendrix Experience

Johnny Bgoode

Jimi Hendrix Experience

tabs Advanced advanced

save to print version add songbook text version e-mail correct tuner
chordsukulelecavacokeyboardtabbassdrumsharmonicaflute Guitar Pro
close

there isn't a video lesson for this song

chords

Johnny Bgoode

	  		 
Hope you like it enjoy 
 
Intro: 
--------/7-7-7-7--/7-7-7-7---10p9p7------------------------------- 
----7-9-/7-7-7-7--/7-7-7-7----------10p9p7------------------------ 
-/8----------------------------------------7h8----8-8-8-8-8-8-8-8- 
-----------------------------------------------9--7-7-7-7-7-7-7-7- 
--------------------------------------------------9-9-9-9-9-9-9-9- 
--------------------------------------------------7-7-7-7-7-7-7-7- 
                        2x(chorus riff) 
---------------------||---------------------------------|| 
----7-9-7------------||-7-----7--7----7--7----7--7----7-|| 
-/8-------8\6-4------||-9(11)----9(11)---9(11)---9(11)--|| 
-----------------6-4-||---------------------------------|| 
---------------------||---------------------------------|| 
---------------------||---------------------------------|| 
 
riff a: 
-7---------10-9-7--------------------------------------- 
---10-9-7---------10-9-7-7------7----------------------- 
-------------------------9(11)-(11)9-7-----7(8)--------- 
---------------------------------------9-7------9------- 
---------------------------------------------------9-9~- 
-------------------------------------------------------- 
riff b: 
  4x 
||-/7-7-7-7-7----------|| 
||-/7-7-7-7-7-9-7(8)---|| 
||------------9-7(8)---|| 
||-------------------9-|| 
||---------------------|| 
||---------------------|| 
 
Solo: 
                      slow bend     slow trill 
---------------------------------------------------- 
-9(11)9(11)9(11)9(11)-7----------------------------- 
-9(11)9(11)9(11)9(11)-9(11)~~9p7----9p7h9p7h9p7h9p7- 
---------------------------------------------------- 
---------------------------------------------------- 
---------------------------------------------------- 
repeat riff a and b 
 
-------------------------------7-------------10------------------------ 
-----------------------------7---10(12)~-/12----10h12p10----10--10(12)- 
-9(11)(12)(11)9-7(8)---9(11)-----------------------------11------------ 
---------------------9------------------------------------------------- 
----------------------------------------------------------------------- 
----------------------------------------------------------------------- 
 
-------7------------------------- 
-7-------10p7-------7------------ 
-9(11)--------9(11)---9p7---7---- 
--------------------------9------ 
------------------------------9~- 
--------------------------------- 
 
 
 
 
 
wah on high treble 
-12------------------------------------------------------------------ 
-15(17)~~-12-15(17)15p12----12~~------15-17-17(19)~~-(19)17p15----15- 
-------------------------14-------/16--------------------------16---- 
--------------------------------------------------------------------- 
--------------------------------------------------------------------- 
--------------------------------------------------------------------- 
 
--------------------- 
-7------------------- 
-9(11)~--(11)9p7----- 
-----------------9--- 
-------------------9- 
--------------------- 
 
third verse 
 
riff b 
 
-10(12)10(12)10p7------------------------------------------------- 
------------------10p7---7-------7----------------7-10p7-------7-- 
-----------------------9---9(11)---(11)9p7---9(11)-------9(11)---- 
-------------------------------------------9---------------------- 
------------------------------------------------------------------ 
------------------------------------------------------------------ 
 
-------------------------------------------- 
-7-----7-10p7------------------------------- 
-9(11)--------9p7-----------7-9(11)9p7------ 
------------------9p7-----9------------9---- 
----------------------9-7----------------9~- 
-------------------------------------------- 
riff b 
---------------------------------------10(12)-10~--10--------10--7--------7 
-7--------10(12)-10(12)-10(12)-10(12)~----------------10(12)-------10(12)-- 
-9(11)~9------------------------------------------------------------------- 
--------------------------------------------------------------------------- 
--------------------------------------------------------------------------- 
--------------------------------------------------------------------------- 
 
-----7-------------- 
-------10(12)10p7--- 
-7h8--------------9- 
-------------------- 
-------------------- 
-------------------- 
riff a 
riff b 
--------------------------------------------------------------------------- 
-----------------------10(12)10--10(12)~--10p7----------------------------- 
-7(9)7(9)7(9)7(9)7(9)--------------------------9----7-9-----7h9(11)-9p7---7 
-------------------------------------------------/9-----7h9-------------9-- 
--------------------------------------------------------------------------- 
--------------------------------------------------------------------------- 
 
 
 
 
----------------------- 
----------------------- 
----7---7---7-7---7-9~- 
-/9---9---9-----9------ 
----------------------- 
----------------------- 
 
outro(a capella): 
-------------------------------10-12(14)-12p10------------------------ 
-10(12)~~-10p7-10(12)10p7---/12----------------12-12p10---10---------- 
--------------------------9-----------------------------11---11\9p7-9- 
---------------------------------------------------------------------- 
---------------------------------------------------------------------- 
---------------------------------------------------------------------- 
 
--------------------------------7------------------------------------------ 
------------------------------7---10p7--------------------------------7---- 
-9p7---7-----------------9(11)---------7h9p7--7-----------------------9(11) 
-----9---9p7---7----------------------------9---9p7h9---7------------------ 
-------------9---9\7p5--------------------------------9---7h9p7\5---------- 
-----------------------7------------------------------------------7~~------- 
 
FreakMen 
 

		  

See also:

tabs Simon & Garfunkel - Sounds of silence tabs R.E.M. - Everybody Hurts tabs Guns N' Roses - Knockin' On Heaven's Door tabs John Mayer - Belief tabs The Wonders - That Thing You Do tabs Cheap Trick - The Flame
e-chords

Other versions:

tabs Jimi Hendrix Experience - Johnny Bgoode
auto scroll beats size up size down change color hide chords drawings
tab show chords e-chords YouTube Clip e-chords hide all tabs e-chords go to top tab

share