Jimi Hendrix Experience

All Along The Watchtower

Jimi Hendrix Experience

tabs Intermediate intermediate

save to print version add songbook text version e-mail correct tuner
chordsukulelecavacokeyboardtabbassdrumsharmonicaflute Guitar Pro
close

there isn't a video lesson for this song

chords

All Along The Watchtower

	  		Words/Music by Bob Dylan 
Transcribed to Tab by 
Mike Allen, Pleasant Hill, US 2004 
 
(4/4 time for the 1st 4 bars 
 then 9/8 time for the rest, 
 tune 1/2 step down) 
 
E|--------------------------------|--------------------------------------| 
B|------4--4----------------------|---5--5--5--5------------------4--4---| 
G|------4--4----------------------|---6--6--6--6------------------4--4---| 
D|------4--4----------------------|---6--6--6--6------------------4--4---| 
A|------2--2----------------------|---4--4--4--4------------------2--2---| 
E|--------------------------------|--------------------------------------| 
 
E|--0--0--0-----------------------|--------------------------------------| 
B|--2--2--2--2-------------4--4---|---5--5--5--5------------------4--4---| 
G|--2--2--2--2-------------4--4---|---6--6--6--6------------------4--4---| 
D|--2--2--2--2-------------4--4---|---6--6--6--6------------------4--4---| 
A|--0--0--0--0-------------2--2---|---4--4--4--4------------------2--2---| 
E|--------------------------------|--------------------------------------| 
 
E|--------------------------------|--------------------------------------| 
B|--2-2-2--2--2-2--2--2--4-4------|--5--5---5---5---4--4-4-4--4---4---2--| 
G|--2-2-2--2--2-2--2--2--4-4------|--6--6---6---6---4--4-4-4--4---4---2--| 
D|--2-2-2--2--2-2--2--2--4-4------|--6--6---6---6---4--4-4-4--4---4---2--| 
A|--0-0-0--0--0-0--0--0--2-2------|--4--4---4---4---2--2-2-2--2---2---0--| 
E|--------------------------------|--------------------------------------| 
 
E|--------------------------------|--------------------------------------| 
B|-2--2--2--4-4--4-4--4-4--4---5-5|-5--5--5-5--5---4--4-4--4--4---4---4--| 
G|-2--2--2--4-4--4-4--4-4--4---6-6|-6--6--6-6--6---4--4-4--4--4---4---4--| 
D|-2--2--2--4-4--4-4--4-4--4---6-6|-6--6--6-6--6---4--4-4--4--4---4---4--| 
A|-0--0--0--2-2--2-2--2-2--2---4-4|-4--4--4-4--4---2--2-2--2--2---2---2--| 
E|--------------------------------|--------------------------------------| 
 
                                  there must be some kinda way 
E|--------------------------------|--------------------------------------| 
B|-2---2---2----4-4--4--4---4---0-|--------------------------------------| 
G|-2---2---2----4-4--4--4---4-----|----------------8---------------------| 
D|-2---2---2----4-4--4--4---4-----|----------------9---------------------| 
A|-0---0---0----2-2--2--2---2-----|----------------9---------------------| 
E|--------------------------------|----------------7---------------------| 
 
out-ta   here______________            said the jo-ker to the thief 
E|--------------------------------|--------------------------------------| 
B|-----2---------------4--4---0---|----5---------------------------------| 
G|-----2---------------4--4-------|----6-------------8-------------------| 
D|-----2---------------4--4-------|----6-------------9-------------------| 
A|-----0---------------2--2-------|----4-------------9-------------------| 
E|--------------------------------|------------------7-------------------| 
 
                                  There's too much con-fu-sion 
E|--------------------------------|--------------------------------------| 
B|--2-----------------4--4---0----|---5---------------4------------------| 
G|--2-----------------4--4--------|---6---------------4------------------| 
D|--2-----------------4--4--------|---6---------------4------------------| 
A|--0-----------------2--2--------|---4---------------2------------------| 
E|--------------------------------|--------------------------------------| 
 
 
E|--------------------------------| 
B|--2---------------4-------------|  Continue previous pattern. 
G|--2---------------4-------------| 
D|--2---------------4------4---2--| 
A|--0---------------2-------------| 
E|--------------------------------| 
 
Jimi Hendrix is the god of electric guitar, worship him, and only play this song
if you love him with passion and you respect his music. 
 

		  

See also:

tabs Simon & Garfunkel - Sounds of silence tabs R.E.M. - Everybody Hurts tabs Guns N' Roses - Knockin' On Heaven's Door tabs John Mayer - Belief tabs The Wonders - That Thing You Do tabs Cheap Trick - The Flame
e-chords

Other versions:

tabs Jimi Hendrix - All Along The Watchtower tabs Jimi Hendrix Experience - All Along The Watchtower tabs Tony Skeggs - All Along The Watchtower
auto scroll beats size up size down change color hide chords drawings
tab show chords e-chords YouTube Clip e-chords hide all tabs e-chords go to top tab

share