Jewel

Whats Simple Is True

Jewel

tabs

by  HEBEALMEIDA

save to print version add songbook text version e-mail correct tuner
chordsukulelecavacokeyboardtabbassdrumsharmonicaflute Guitar Pro
close

there isn't a video lesson for this song

chords

Whats Simple Is True

	  		 


Intro:  

    G5        G/B          Cadd9   
e|------3------------3------------3---------3------------| 
B|--3-----3---3--------3---3--------3---------3----------| 
G|----0------------0------------0---------0--------------| 
D|-------------------------------------------------------| 
A|------------0h2----------2h3----------3----------------| 
E|--3----------------------------------------------------|(x2) 



verse 1: 

    G5        G/B         Cadd9   
e|------3------------3------------3---------3------------| 
B|--3-----3---3--------3---3--------3---------3----------| 
G|----0------------0------------0---------0--------------| 
D|-------------------------------------------------------| 
A|------------0h2----------2h3----------3----------------| 
E|--3----------------------------------------------------|(x2) 
              Turn to me with frozen lips 
         Your hands are icy cold 


      F6/9      Em7 *     G/B       Cadd9 
e|--------3---------3---------3---------3---------3------| 
B|----------3---------3---------3---------3---------3----| 
G|------2---------0---------0---------0---------0--------| 
D|0h2h3---------2----------------------------------------| 
A|------------------------2-------2h3---------3----------| 
E|-------------------------------------------------------|(x1) 
 Your eyes burn bright against the frost bit sky 


      F6/9      Em7 *     G/B                 Cadd9 (x2) 
e|--------3---------3---------3---------3---------3------| 
B|----------3---------3---------3---------3---------3----| 
G|------2---------0---------0---------0---------0--------| 
D|0h2h3---------2----------------------------------------| 
A|------------------------2---------2-------2h3----------| 
E|-------------------------------------------------------|(x1) 
You never seemed more lovely than you do    tonight 



verse 2: 

    G5        G/B         Cadd9   
e|------3------------3------------3---------3------------| 
B|--3-----3---3--------3---3--------3---------3----------| 
G|----0------------0------------0---------0--------------| 
D|-------------------------------------------------------| 
A|------------0h2----------2h3----------3----------------| 
E|--3----------------------------------------------------|(x2) 
              Pale on the horizon 
  Like leaves frozen in the snow 


      F6/9      Em7 *     G/B       Cadd9 
e|--------3---------3---------3---------3---------3------| 
B|----------3---------3---------3---------3---------3----| 
G|------2---------0---------0---------0---------0--------| 
D|0h2h3---------2----------------------------------------| 
A|------------------------2-------2h3---------3----------| 
E|-------------------------------------------------------|(x2) 
Our two shadows merge     inseparably 
Will time stand still if it's pierced with cold 



Chorus: 

(STRUM) 
    C                         G 
e|--0-------------------------3--------------------------| 
B|--1-------------------------0--------------------------| 
G|--0-------------------------0--------------------------| 
D|--2-------------------------0--------------------------| 
A|--3-------------------------2--------------------------| 
E|----------------------------3--------------------------|(x3) 
                   The more I live 
                   The more I know 
             What's simple is true 

(STRUM) 
    C            Em7/B        Am 
e|--0------------0------------0--------------------------| 
B|--1------------3------------1--------------------------| 
G|--0------------0------------2--------------------------| 
D|--2------------0------------2--------------------------| 
A|--3------------2------------0--------------------------| 
E|-------------------------------------------------------|(x1) 
  I Lo    -      o      -     ove          


    G5                        G5 
e|------3-------------------------3----------------------| 
B|--------3-------------------------3--------------------| 
G|----0-------------------------0------------------------| 
D|-------------------------------------------------------| 
A|-------------------------------------------------------| 
E|--3-------3-----------------3-------3------------------|(x1) 
    You 



verse 3: 

    G5        G/B         Cadd9   
e|------3------------3------------3---------3------------| 
B|--3-----3---3--------3---3--------3---------3----------| 
G|----0------------0------------0---------0--------------| 
D|-------------------------------------------------------| 
A|------------0h2----------2h3----------3----------------| 
E|--3----------------------------------------------------|(x2) 
     Theres a warmth in my heart 
           It haunts me when you're gone  


      F6/9      Em7 *     G/B       Cadd9 
e|--------3---------3---------3---------3---------3------| 
B|----------3---------3---------3---------3---------3----| 
G|------2---------0---------0---------0---------0--------| 
D|0h2h3---------2----------------------------------------| 
A|------------------------2-------2h3---------3----------| 
E|-------------------------------------------------------|(x2) 
      Mend me to your side and never let go 
 Say "Time knows nothing, we'll never grow cold" 



Chorus: 

(STRUM) 
    C                         G 
e|--0-------------------------3--------------------------| 
B|--1-------------------------0--------------------------| 
G|--0-------------------------0--------------------------| 
D|--2-------------------------0--------------------------| 
A|--3-------------------------2--------------------------| 
E|----------------------------3--------------------------|(x3) 
                   The more I live 
                   The more I know 
             What's simple is true 

(STRUM) 
    C            Em7/B        Am 
e|--0------------0------------0--------------------------| 
B|--1------------3------------1--------------------------| 
G|--0------------0------------2--------------------------| 
D|--2------------0------------2--------------------------| 
A|--3------------2------------0--------------------------| 
E|-------------------------------------------------------|(x1) 
  I Lo    -      o      -     ove          


    G5                        G5 
e|------3-------------------------3----------------------| 
B|--------3-------------------------3--------------------| 
G|----0-------------------------0------------------------| 
D|-------------------------------------------------------| 
A|-------------------------------------------------------| 
E|--3-------3-----------------3-------3------------------|(x1) 
    You 



Bridge: 

    C           Em7/B       Am7         F 
e|------0---0-------0---0-------0---0-------1---1--------| 
B|------1---1-------3---3-------1---1-------1---1--------| 
G|--------0---0-------0---0-------0---0-------2---2------| 
D|--------------------------------------3----------------| 
A|--3-----------2-----------0----------------------------| 
E|-------------------------------------------------------|(x1) 
    Twilight   descends on our    silhouette 

    C           Em7/B       Am7         F   
e|------0---0-------0---0-------0---0-------1---1--------| 
B|------1---1-------3---3-------1---1-------1---1--------| 
G|--------0---0-------0---0-------0---0-------2---2------| 
D|-------------------------------------------------------| 
A|--3-----------2-----------0----------------------------| 
E|--------------------------------------1----------------|(x1) 
How soon spring comes, how soon spring forgets 

    Em7                     G5 
e|------0---0-------0---0-------3---3-------3---3--------| 
B|------3---3-------1---1-------3---3-------3---3--------| 
G|--------0---0-------0---0-------0---0-------0---0------| 
D|-------------------------------------------------------| 
A|-------------------------------------------------------| 
E|--0-----------0-----------3-----------3----------------|(x1) 
 I wanna hold time, say it'll never begin 


    C           Em7/B       Am7          
e|------0---0-------0---0-------0---0-------0---0--------| 
B|------1---1-------3---3-------1---1-------1---1--------| 
G|--------0---0-------0---0-------0---0-------0---0------| 
D|-------------------------------------------------------| 
A|--3-----------2-----------0-----------0----------------| 
E|-------------------------------------------------------|(x1) 
    Old man winter be our friend 

    C           Em7/B       Am          
e|------0---0-------0---0-------0---0-------0---0--------| 
B|------1---1-------3---3-------1---1-------1---1--------| 
G|--------0---0-------0---0-------2---2-------2---2------| 
D|-------------------------------------------------------| 
A|--3-----------2-----------0-----------0----------------| 
E|-------------------------------------------------------|(x1) 
    Old man winter be our friend 



Chorus: 

(STRUM) 
    C                         G 
e|--0-------------------------3--------------------------| 
B|--1-------------------------0--------------------------| 
G|--0-------------------------0--------------------------| 
D|--2-------------------------0--------------------------| 
A|--3-------------------------2--------------------------| 
E|----------------------------3--------------------------|(x4) 
                   The more I live 
                   The more I know 
             What's simple is true 
             What's simple is true 
(STRUM) 
    C            Em7/B        Am 
e|--0------------0------------0--------------------------| 
B|--1------------3------------1--------------------------| 
G|--0------------0------------2--------------------------| 
D|--2------------0------------2--------------------------| 
A|--3------------2------------0--------------------------| 
E|-------------------------------------------------------|(x2) 
  I love,        love,        love, 
  I love,        love,        love  


    G5                        G5 
e|------3-------------------------3----------------------| 
B|--------3-------------------------3--------------------| 
G|----0-------------------------0------------------------| 
D|-------------------------------------------------------| 
A|-------------------------------------------------------| 
E|--3-------3-----------------3-------3------------------|(x1) 
    You 
 
		  

Full key step upFull key step up
Half key step upHalf key step up
Half key step downHalf key step down
Full key step downFull key step down
hide glossary

See also:

tabs The Smiths - Heaven Knows I'm Miserable Now tabs Eagles - Hotel California tabs The Beatles - All My Loving tabs Deep Purple - Smoke On The Water (Easy Intro) tabs Dire Straits - Sultans of Swing tabs Santana - Maria Maria
e-chords

Other versions:

tabs Jewel - Whats Simple Is True
auto scroll beats size up size down change color hide chords drawings
tab show chords e-chords YouTube Clip e-chords hide all tabs e-chords go to top tab

share