Jewel

Little Sister

Jewel

tabs Beginner beginner

save to print version add songbook text version e-mail correct tuner
chordsukulelecavacokeyboardtabbassdrumsharmonicaflute Guitar Pro
close

there isn't a video lesson for this song

chords

Little Sister

	  			Standard Tuning(E A D G B E) 
 
	                    |                                 |        
e--------2----0h2----2h3----|----------2-----0h2------2h3-----|---------------0------------ 
B----3-----3------3------3--|--3---3------3-------3--------3--|----0------0-----0-----0---0 
G---------------------------|---------------------------------|--------0----0-------0---0-- 
D--2---2-----2------2------2|----0---0------2--------2-------2|---------------------------- 
A---------------------------|---------------------------------|--3---3------------3-------- 
E---------------------------|---------------------------------|---------------------------- 
 
e--------3-----3-----3-- 
B----3-----3-----3-----3 
G----------------------- 
D----------------------- 
A----------------------- 
E--3---3-----3-----3---- 
 
..and there ya go..repeat that all through the song listening to the words and how they correspond to the tablature and have fun!:) 
 
...Oh yeah, and at the very end she strums this: 
 
e------0--| 
B-----0---| 
G----0----| 
D---2-----| 
A--3------| 
E---------| 
..needed more*(strum on "more") 
 
I've provided the lyrics just for the heck of it so, here they are: 
 
Hey little sister, i heard you went to mr. so and so 
knock, knock, knocking on his door again last night 
said you needed it bad, you know that aint right. 
'Cuz so many times you've come to me cry, crying 
trying to stop you said it hurts so bad but please dont let you 
go back for more 
My little sister is a zombie in a body with no 
soul a role she has learned to play in a world today where nothing else matters 
but it matters 
we've gotta start feeding our souls not our addictions or afflictions of pain 
to avoid the same questions we must ask ourselves to get any answers 
 
we've gotta start feeding our souls have been lost to the millions with lots 
who feed on addictions selling pills and what's hot 
and i wish i could save her from all their dellusions 
all the confusion yay yay 
 
of a nation that starves for salvation 
but clothing is the closest approximation to God 
and He only knows that drugs are all we know of love 
...hee ee ee...hee ee ee eee yay ee yay ee yay ee yay eee... 
 
Everyday we starve while we eat white bread and beer instead of a handshake or hug 
we spill the pills and sweep them under the rug yay yay yay 
my little sister is a zombie in a body with no soul 
a role she has learned to play in a world today where nothing else matters 
but it matters  
we've gotta start feeding our souuuuu....ls yay yay yay..la da da da da di 
 
Hey little sister, i heard you went to mr. so and so's 
knock, knock, knocking on his door again last night said you.. 
..needed more. 
 

		  

Full key step upFull key step up
Half key step upHalf key step up
Half key step downHalf key step down
Full key step downFull key step down
hide glossary

See also:

tabs The Smiths - Heaven Knows I'm Miserable Now tabs Eagles - Hotel California tabs The Beatles - All My Loving tabs Deep Purple - Smoke On The Water (Easy Intro) tabs Dire Straits - Sultans of Swing tabs Santana - Maria Maria
e-chords

Other versions:

tabs Jewel - Little Sister tabs Pink - Little Sister tabs Queens Of The Stone Age - Little Sister tabs Queens Of The Stone Age - Little Sister (ver. 2)
auto scroll beats size up size down change color hide chords drawings
tab show chords e-chords YouTube Clip e-chords hide all tabs e-chords go to top tab

share