Jethro Tull

Locomotive Breath Beginning

Jethro Tull

tabs Advanced advanced

save to print version add songbook text version e-mail correct tuner
chordsukulelecavacokeyboardtabbassdrumsharmonicaflute Guitar Pro
close

there isn't a video lesson for this song

chords

Locomotive Breath Beginning

	  		Tuning: standard 
 
Main riff: 
     E E E    G D E  
e----0-0-0----3-2-0-------x-x-x-x-x-x 
h----0-0-0----0-3-0-------x-x-x-x-x-x 
g----1-1-1----0-2-1-------x-x-x-x-x-x 
d----2-2-2----0-0-2-------x-x-x-x-x-x 
E----2-2-2----2---2-------x-x-x-x-x-x 
A----0-0-0----3---0-------x-x-x-x-x-x 
 
     E E E    G D E  
e----0-0-0----3-2-0-------x-x-x-x-x-x 
h----0-0-0----0-3-0-------x-x-x-x-x-x 
g----1-1-1----0-2-1-------x-x-x-x-x-x 
d----2-2-2----0-0-2-------x-x-x-x-x-x 
E----2-2-2----2---2-------x-x-x-x-x-x 
A----0-0-0----3---0-------x-x-x-x-x-x 
 

		  

Full key step upFull key step up
Half key step upHalf key step up
Half key step downHalf key step down
Full key step downFull key step down
hide glossary

See also:

tabs Fuel - Hemmorhage (ver. 2) tabs Jethro Tull - Locomotive Breath Beginning tabs Arctic Monkeys - Old Yellow Bricks tabs Blur - Song 2 (ver. 2) tabs Oasis - I Can See a Liar tabs Tracy Chapman - Give Me One Reason
e-chords

Other versions:

tabs Jethro Tull - Locomotive Breath Beginning
auto scroll beats size up size down change color hide chords drawings
tab show chords e-chords YouTube Clip e-chords hide all tabs e-chords go to top tab

share