Jet Harris

Applejack

Jet Harris

tabs

by  JOAOEWERTON

save to print version add songbook text version e-mail correct tuner
chordsukulelecavacokeyboardtabbassdrumsharmonicaflute Guitar Pro
close

there isn't a video lesson for this song

chords

Applejack

	  		

Tuning: 1/2 Step Down: ( D# to D#) 
     Main Theme: Pretty much the whole song for guitar 
e|--------------------------------------------------------------------------| 
B|--------------------------------------------------------------------------| 
G|------------2-1-----1---1-------------------------------------------------| 
D|---0-2---2------4-2---4---1-2----2----0------0-----------------0----------| 
A|-4-----4----------------------4-4---4----2-2---2-4--0-0-4-0-2-------2-----| 
E|------------------------------------------------------------------4----0--| 

2nd Ending: (A variation of the ending of the main theme) 
e|-----------------------------------------| 
B|-----------------------------------------| 
G|-----------------------------------------| 
D|-----2---0-----0---------------0---------| 
A|-4-4---4---2-2---2-4-0-0-4-0-2-----2--0--| 
E|---------------------------------4-------|  
		  

Full key step upFull key step up
Half key step upHalf key step up
Half key step downHalf key step down
Full key step downFull key step down
hide glossary

See also:

tabs Ira! - Vitrine Viva tabs Deep Purple - Black Knight tabs Deep Purple - Demonds Eye tabs Deep Purple - Smoke on the Water (ver. 2) tabs Deep Purple - Clearly Quite Absurd tabs Ira! - Envelheço na Cidade (intro)
e-chords

Other versions:

tabs Jet Harris - Applejack
auto scroll beats size up size down change color hide chords drawings
tab show chords e-chords YouTube Clip e-chords hide all tabs e-chords go to top tab

share