Jerry Reed

home > Jerry Reed

East Bound And Down Tab

Jerry Reed

Difficulty: ExpertExpert

by Nick+D

tuner correct add songbook print version text version save to e-mail
chordsukulelecavacokeyboardtabbassdrumsharmonicsflute Guitar Pro
chords

East Bound And Down

  		Intro: E - D - C B A - D 

  G                     A                      F                C                 D 

  East bound and down, loaded up and truckin', We gonna do what they say can't be done. 

           G                      A                            C               D          
        G 

  We got a long way to go , and a short time to get there, I'm east bound just watchin'  
bandit run. 

   Em                            C/Gbass                 A              B7                
   E 

  'Ol smokey's got them ears on, he's hot on your trail, he ain't gonna rest 'till  
in jail. 

                Em                                        C/Gbass 

  So you got to dodge him you got to duck him, you got to keep that diesal truckin', 

       A                                B7 

  Just put that hammer down and give it Hell. 


  ( Repeat Chorus )  p=pull off   h=hammer    > = slide up  < = slide down  x = muff  b  
bend 


-----------------------------------------------------------------|-----------------------------------------------| 
-----------------------------------------------------------------|-----------------------------------------------| 
---------0--2->-4--2--0--2->-4---------0--2->-4--2->-4--2-p-0----|--2->-4--2-p-0--2--0--2->-4--2-p-0--2--0-------| 
---0--2-------------------------0-h-2--------------------------2-|------------------------------------------2--0-| 
-----------------------------------------------------------------|-----------------------------------------------| 
-----------------------------------------------------------------|-----------------------------------------------| 

------------------------------------------------------------------------------------------------------------------------| 
---3--1--0--------------------------------------------8---15---15--------------15-------15------------------------------| 
---x--------0-------------------------------7--7-h-9------14-b-16--14-p-12-----14-b-16--14--12----12--------------------| 
---x-----------2---------------5--5--7->-9---------------------------------14------------------14----14--12-------------| 
---x--------------5--2--4->-7-------------------------------------------------------------------------------14-<-12--10-| 
---x--------------------------------------------------------------------------------------------------------------------| 

-------------------| 
-------------------| 
---12--------------| 
-------14--12------| 
---------------10--| 
-------------------| 

----------------------------------------------------------------------------------------------------------| 
---3------------------------------------------------------------------------------------------------------| 
---2-b-4-r-0----------------0--2-h-3-p-2-p-0--------------------0--2-h-3-p-2-p-0-------2--0--2->-4--2--0--| 
-------------0--2-2-2-4-4-4------------------2-p-0--2-2-2-4-4-4------------------2-p-0--------------------| 
----------------------------------------------------------------------------------------------------------| 
----------------------------------------------------------------------------------------------------------| 

----------------1-----|--------------------------------------------------------------------| 
---------0--3---------|--------------------------------------------------------------------| 
--2->-3------------4--|--------------0--2-h-3-p-2-p-0--------------------0--2-h-3-p-2-p-0--| 
----------------------|--2-2-2-4-4-4------------------2-p-0--2-2-2-4-4-4-------------------| 
----------------------|--------------------------------------------------------------------| 
----------------------|--------------------------------------------------------------------| 

--------------------------3---5--7---| 
----------3--1----3---5--------------| 
---2--2---4--2----4---6---4---5--7---| 
---4--2------------------------------|      Repeat 1st part of lead. 
-------------------------------------| 
-------------------------------------| 


	  

Search Paypal
auto scroll beats size up size down change color hide chords drawings
tab show chords e-chords YouTube Clip e-chords hide all tabs e-chords go to top tab