Jerry Lee Lewis

home > Jerry Lee Lewis

Johnny Be Good Tab

Jerry Lee Lewis

Difficulty: ExpertExpert

tuner correct add songbook print version text version save to e-mail
chordsukulelecavacokeyboardtabbassdrumsharmonicsflute Guitar Pro
chords

Johnny Be Good

  		Johnny Be Good, Jerry Lee Lewis 
 
 
E--5-5-5-5-5------------5-5-5-5-5----------------------- 
B--5-5-5-5-5------------5-5-5-5-5----------------------- 
G-------------7--5------------------7--5----5--7--5----- 
D-------------------7---------------------7----------7-- 
A------------------------------------------------------- 
E------------------------------------------------------- 
 
 
E------------------------------------------------------- 
B------------------------------------------------------- 
G--5--7--5----5--7bh--5h7-5-----5----------------------- 
D-----------7----------------7-------------------------- 
A------------------------------------------------------- 
E------------------------------------------------------- 
 

	  

Search Paypal
auto scroll beats size up size down change color hide chords drawings
tab show chords e-chords YouTube Clip e-chords hide all tabs e-chords go to top tab