Jerome Kern

home > Jerome Kern

The Way You Look Tonight Tab

Jerome Kern

Difficulty: nolevelnolevel

by aleffederico

tuner correct add songbook print version text version save to e-mail
chordsukulelecavacokeyboardtabbassdrumsharmonicsflute Guitar Pro
chords

The Way You Look Tonight

  		

Tuning: Standard 

e|---------------------------------------------------------------------------| 
B|----------------------------------------------------4----------------------| 
G|-------------------------3---------3-5-3-----3-5-7-------------------------| 
D|--8--------5-6-5-----5-6---6-5--6----------6-----------------5--8--6-5-----| 
A|-----6---8-------~8-------------------------------------6--8-----------8-6-| 
E|-------------------------------------------------------------------------- | 

e|---------------------------------------------------------------------------| 
B|--------------------------------------------------b4----------------5------| 
G|-5-7--3-5--1--3-3-3-3--3/6--4------------------------~6-6-6-6-6--6-----4--3| 
D|--------------------------------6--6--8------------------------------------| 
A|-----------------------------------------9--8--9---------------------------| 
E|---------------------------------------------------------------------------| 

e|---------------------------------------------------------------------------| 
B|---------------------------------------------------------------------------| 
G|---------------------------------------------------------------------------| 
D|--6--8-----------~8------------b8---------5-6--5------5--6--8--6--b5-------| 
A|--------9--8--9---------5--8-----6---8-----------b8------------------------| 
E|----------------------8----------------------------------------------------| 

e|---------------------------------------------------------------------------| 
B|---------------------------------------------------------------------------| 
G|---------5------------5--7--~8----------------------------5-7---3-5--1--3--| 
D|---6--8-----8--6---8------------------5--8--6-5----------------------------| 
A|-------------------------------b6--8--------------8--b6--------------------| 
E|---------------------------------------------------------------------------| 

e|---------------------------------------------------------------------------| 
B|---------------------------------------------------------------------------| 
G|--1--3--1--0---------------------------------------------------------------| 
D|----------------~3--1------------------------------------------------------| 
A|---------------------------------------------------------------------------| 
E|---------------------------------------------------------------------------| 
  

************************************ 

| /   slide up 
| \   slide down 
| h   hammer-on 
| p   pull-off 
| ~   vibrato 
| +   harmonic 
| x   Mute note 
| b   Bend 
| pb  Pre-bend 
| br  Bend release 
| pbr Pre-bend release 
| brb Bend release bend 

************************************ 
	  

Search Paypal
auto scroll beats size up size down change color hide chords drawings
tab show chords e-chords YouTube Clip e-chords hide all tabs e-chords go to top tab