Jennifer Rostock

Lügen Haben Schöne Beine

Jennifer Rostock

tabs

by  GUSTSILVA

save to print version add songbook text version e-mail correct tuner
chordsukulelecavacokeyboardtabbassdrumsharmonicaflute Guitar Pro
close

there isn't a video lesson for this song

chords

Lügen Haben Schöne Beine

	  		
Intro 
e|-------------------------------------------------------| 
B|-------------------------------------------------------| 
G|-8-10---8-12-------------------------------------------| 
D|-x-x----x-x--------------------------------------------| 
A|-6-8----6-10-------------------------------------------| 
E|-------------------------------------------------------| 

Chorus I 
e|-------------------------------------------------------| 
B|-------------------------------------------------------| 
G|-5-8-10-13-15------------------------------------------| 
D|-5-8-10-13-15------------------------------------------| 
A|-3-6-8--11-13------------------------------------------| 
E|-------------------------------------------------------| 

Bridge 
e|-------------------------------------------------------| 
B|-------------------------------------------------------| 
G|-3-----8-3---------------------------------------------| 
D|-x-----x-x---------------------------------------------| 
A|-1-----6-1---------------------------------------------| 
E|-------------------------------------------------------| 

Chorus II 
e|-------------------------------------------------------| 
B|-------------------------------------------------------| 
G|-7-10-12-15-17-----------------------------------------| 
D|-7-10-12-15-17-----------------------------------------| 
A|-5-8--10-13-15-----------------------------------------| 
E|-------------------------------------------------------| 

Chorus III 
e|-------------------------------------------------------| 
B|-------------------------------------------------------| 
G|-----2-5-7---------------------------------------------| 
D|-2-5-2-5-7---------------------------------------------| 
A|-2-5-0-3-5---------------------------------------------| 
E|-0-3---------------------------------------------------| 

Outro 
e|-------------------------------------------------------| 
B|-------------------------------------------------------| 
G|---2-4-7-9---------------------------------------------| 
D|-4-2-4-7-9-------4-------------------------------------| 
A|-4-0-2-5-7-------4-------------------------------------| 
E|-2---------------2-------------------------------------| 
		  

See also:

tabs Itchy Poopzkid - Get Up Get Down tabs Itchy Poopzkid - Out There tabs Jennifer Rostock - Paris tabs Broilers - Paul Der Hooligan tabs Broilers - Zurck In Schwarz tabs Itchy Poopzkid - And Now We Stopped
e-chords

Other versions:

tabs Jennifer Rostock - Lügen Haben Schöne Beine
auto scroll beats size up size down change color hide chords drawings
tab show chords e-chords YouTube Clip e-chords hide all tabs e-chords go to top tab

share