Jeff Williams

I May Fall

Jeff Williams

tabs

by  PAULLET3

save to print version add songbook text version e-mail correct tuner
chordsukulelecavacokeyboardtabbassdrumsharmonicaflute Guitar Pro
close

there isn't a video lesson for this song

chords

I May Fall

	  		
Intro 0:00 - 0:13 
Boths Guitar 
e|---------------------------------------------------------------------------| 
B|---------------------------------------------------------------------------| 
G|---------------------------------------------------------------------------| 
D|---------------------------------------------------------------------------| 
A|333333355557777\3---8------------------------------------------------------| 
D|333333355557777\3---8-X16--------------------------------------------------| 


verse 1 0:13 - 0:26 
Left Guitar 
e|---------------------------------------------------------------------------| 
B|---------------------------------------------------------------------------| 
G|---------------------------------------------------------------------------| 
D|---------------------------------------------------------------------------| 
A|3~3333335~557~773~3333335~557~770~0000002~227~778~8888888~888888-----------| 
D|3~3333335~557~773~3333335~557~770~0000002~227~778~8888888~888888-----------| 

Right Guitar 
e|---------------------------------------------------------------------------| 
B|10~101010101010-8~~8-8--10--13-10~101010101010---8~8-10-10-6--6666-XX8/3---| 
G|-9~9-9-9-9-9-9--7-~7-7--9---12--9~9-9-9-9-9-9--7-7~7-9--9--5--5555-XX7/2---| 
D|---------------------------------------------------------------------------| 
A|---------------------------------------------------------------------------| 
D|---------------------------------------------------------------------------| 

e|---------------------------------------------------------------------------| 
B|---------------------------------------------------------------------------| 
G|-7---5~~~~-7--7-7---7-7-7------77777779~-----------------------------------| 
D|-7---5~~~~-7--7-7---7-7-7------77777777~-----------------------------------| 
A|---------------------------------------------------------------------------| 
D|---------------------------------------------------------------------------| 


Pre-Chorus 0:26 - 0:40 
Right Guitar 
e|---------------------------------------------------------------------------| 
B|---------------------------------------------------------------------------| 
G|9~999999999999997~777777777777774~4444447~9~999~99------------7~77---------| 
D|7~777777777777775~555555555555552~2222225~7~777~775~557~779~995~559~~~-----| 
A|--------------------------------------------------3~335~557~77----7~~~-----| 
D|---------------------------------------------------------------------------| 

Left Guitar 
e|---------------------------------------------------------------------------| 
B|---------------------------------------------------------------------------| 
G|---------------------------------------------------------------------------| 
D|---------------------------------------------------------------------------| 
A|3~333-333-333-333-333-333-333-333-333-333-333-333-333-333-333--------------| 
D|3~333-333-333-333-333-333-333-333-333-333-333-333-333-333-333--------------| 

e|---------------------------------------------------------------------------| 
B|---------------------------------------------------------------------------| 
G|---------------------------------------------------------------------------| 
D|-----------------------------------9~9912~12129~~--------------------------| 
A|2~222-222-2225~77~7~77-10~1010~12127~7710~10107~~--------------------------| 
D|2~222-222-2225~77~7~77-10~1010~1212----------------------------------------| 

Chorus 0:40 -1:06 
Left Guitar 
e|---------------------------------------------------------------------------| 
B|---------------------------------------------------------------------------| 
G|--------------------------------------------------------99999999-----------| 
D|9~~7~~9~~~~~~~777~~~~~~~7~~~~~~~12~~9~7~9~~~~~~~7~~~~~~~77777777-----------| 
A|7~~5~~7~~~~~~~555~~~~~~~5~~~~~~~10~~7~5~7~~~~~~~5~~~~~~~-------------------| 
D|---------------------------------------------------------------------------| 

e|---------------------------------------------------------------------------| 
B|---------------------------------------------------------------------------| 
G|-----------------7777777777X-------------------9999999999999999------------| 
D|9~~7~~9~~~~~~7---5555555555X-9~~7~~9~~~~~~7----7777777777777777------------| 
A|7~~5~~7~~~~~~5---------------7~~5~~7~~~~~~5--------------------------------| 
D|---------------------------------------------------------------------------| 

Right Guitar 
e|---------------------------------------------------------------------------| 
B|---------------------------------------------------------------------------| 
G|---------------------------------------------------------------------------| 
D|-9~~7~~5~~~~~~7~~~~~~4~4444444---9~~7~~5~55555777~777777-------------------| 
A|-7~~5~~3~~~~~~5~~~~~~2~22222222227~~5~~3~33333555~555555-333333333---------| 
D|------------------------------222------------------------333333333---------| 


e|---------------------------------------------------------------------------| 
B|---------------------------------------------------------------------------| 
G|---------------------------------------------------------------------------| 
D|-9~~7~~5~~~~~~777~~~------------9~~7~~5~~~777~~~---------------------------| 
A|-7~~5~~3~~~~~~555~~~2222222222227~~5~~3~~~555~~~3~33333333333333333--------| 
D|--------------------222222222222----------------3~33333333333333333--------| 


verse 2 1:09 - 1:35 
There's a short vocals only part at the start of this section. 
Right Guitar 
e|---------------------------------------------------------------------------| 
B|10~101010101010-8~~8-8--10--13-10~101010101010---8~8-10-10-6--6666-XX8/3---| 
G|-9~9-9-9-9-9-9--7-~7-7--9---12--9~9-9-9-9-9-9--7-7~7-9--9--5--5555-XX7/2---| 
D|---------------------------------------------------------------------------| 
A|---------------------------------------------------------------------------| 
D|---------------------------------------------------------------------------| 

e|---------------------------------------------------------------------------| 
B|---------------------------------------------------------------------------| 
G|-7---5~~~~-7--7-7---7-7-7------77777779~-----------------------------------| 
D|-7---5~~~~-7--7-7---7-7-7------77777777~-----------------------------------| 
A|---------------------------------------------------------------------------| 
D|---------------------------------------------------------------------------| 

Left Guitar 
e|---------------------------------------------------------------------------| 
B|---------------------------------------------------------------------------| 
G|---------------------------------------------------------------------------| 
D|---------------------------------------------------------------------------| 
A|3~3333335~557~773~3333335~557~770~0000002~227~778~8888888~888888-----------| 
D|3~3333335~557~773~3333335~557~770~0000002~227~778~8888888~888888-----------| 

Pre-Chorus 1:35- 1:49 
Right Guitar 
e|---------------------------------------------------------------------------| 
B|---------------------------------------------------------------------------| 
G|9~999999999999997~777777777777774~4444447~9~999~99------------7~77---------| 
D|7~777777777777775~555555555555552~2222225~7~777~775~557~779~995~559~~~-----| 
A|--------------------------------------------------3~335~557~77----7~~~-----| 
D|---------------------------------------------------------------------------| 

Left Guitar 
e|---------------------------------------------------------------------------| 
B|---------------------------------------------------------------------------| 
G|---------------------------------------------------------------------------| 
D|---------------------------------------------------------------------------| 
A|3~333-333-333-333-333-333-333-333-333-333-333-333-333-333-333--------------| 
D|3~333-333-333-333-333-333-333-333-333-333-333-333-333-333-333--------------| 

e|---------------------------------------------------------------------------| 
B|---------------------------------------------------------------------------| 
G|---------------------------------------------------------------------------| 
D|-----------------------------------9~9912~12129~~--------------------------| 
A|2~222-222-2225~77~7~77-10~1010~12127~7710~10107~~--------------------------| 
D|2~222-222-2225~77~7~77-10~1010~1212----------------------------------------| 

Solo 1:50 - 2:28 
Right Guitar 
These 8th notes are spread apart further to show where the triplets are played. 
e|---------------------------------------------------------------------------| 
B|---------------------------------------------------------------------------| 
G|---------------------------------------------------------------------------| 
D|-9~~7~~5~~~~~~7~~~4~4-4-4-4-4-4-4------9~~7~~5~~~5-5-5-5-5-777~~7-7-7-7-7-7| 
A|-7~~5~~3~~~~~~5~~~2~2-2-2-2-2-2-22-2-2-7~~5~~3~~~3-3-3-3-3-555~~5-5-5-5-5-5| 
D|---------------------------------2-2-2-------------------------------------| 

e|---------------------------------------------------------------------------| 
B|---------------------------------------------------------------------------| 
G|---------------------------------------------------------------------------| 
D|------------------9~~7~~5~~~~~~777~~~~~~------9~~7~~5~~~~~~444-------------| 
A|3-3-3-3-3-3-3-3-3-7~~5~~3~~~~~~555~~~~~~2-----7~~5~~3~~~~~~222-7-----------| 
D|3-3-3-3-3-3-3-3-3-----------------------2 X12------------------7-----------| 
For the last note play the 7 bar chords for 6 measures. (42 times) 

Left Guitar 
e|---------------------------------------------------------------------------| 
B|---------------------------------------------------------------------------| 
G|----------------------------------7~~~7-7-7---------7-7-7-7-7-7-7-7-7------| 
D|-9~~7~~9~~~~~~7~~~7~7-7-7-7-7-7-7-5~~~5-5-5-7-9-7~~-5-5-5-5-5-5-5-5-5------| 
A|-7~~5~~7~~~~~~5~~~5~5-5-5-5-5-5-5-----------5-7-5~~------------------------| 
D|---------------------------------------------------------------------------| 


e|---------------------------------------------------------------------------| 
B|----------------------------------------------------------12-12------------| 
G|-7-7-7-7\X----------12~12~12~12~~~12-X-12~12~12~12~~~12-X-9--9-12-12-------| 
D|-5-5-5-5\X-7~~~~~~~~10~10~10~10~~~10-X-9~~9~~10~10~~~10-X------10-10-------| 
A|-----------5~~~~~~~~-------------------------------------------------------| 
D|---------------------------------------------------------------------------| 

e|---------------------------------------------------------------------------| 
B|------------------------------------------------12--12---------------------| 
G|-12-12-12-12-12-12-12~~~12-12--12-12--12-12-12--9---9----------------------| 
D|-10-10-10-9--9--10-10~~~10-10--9--9---9--10-10-----------------------------| 
A|---------------------------------------------------------------------------| 
D|---------------------------------------------------------------------------| 

e|---------------------------------------------------------------------------| 
B|---------------------------------------------------------------------------| 
G|12--12-12--12--12--12-12---12-12-12-12-------------------------------------| 
D|10--10-10--9---9---10-10---9--10-10-9--------------------------------------| 
A|---------------------------------------------------------------------------| 
D|---------------------------------------------------------------------------| 


I didn't do a very good job in displaying the time values for each note. But if you are trying to learn this  
part then that shouldn't be an issue. Good luck. 
Lead Guitar 
e|---------------------------------------------------------------------------| 
B|----------------------------15~~~-------------------15-15h17---------------| 
G|--------------------7-12~~~~-----14~~~~~~~14b14~~~~~---------14h16-16-14-16| 
D|-----797-----797--79-------------------------------------------------------| 
A|-7910---10910---10---------------------------------------------------------| 
D|---------------------------------------------------------------------------| 

                    |----------3--triplets------|  
e|-------------17~~~~14-15-17-15-17-14---------------------------------------| 
B|----20~------------------------------17-15-13------------------------------| 
G|-16~---19b~----------------------------------------------------------------| 
D|---------------------------------------------------------------------------| 
A|---------------------------------------------------------------------------| 
D|---------------------------------------------------------------------------| 

8th notes 
e|---------------------------------------------------------------------------| 
B|-12-13-15-13-12-13-12------------------------------------------------------| 
G|----------------------14-12-10-12-14-12-10-14-12-10-9----------------------| 
D|---------------------------------------------------------------------------| 
A|---------------------------------------------------------------------------| 
D|---------------------------------------------------------------------------| 

e|----7~---------------------------------------------------------------------| 
B|------8~7b~7b-7-8----------------------------------------------------------| 
G|-9~--------------7-9--------7------10-7----7b~~----------------------------| 
D|---------------------7-9-10---10-7------10---------------------------------| 
A|---------------------------------------------------------------------------| 
D|---------------------------------------------------------------------------| 

e|---------------------------------------------------------------------------| 
B|---------------------------------------------------------------------------| 
G|--------------------------------12--15--12-14-14b~~~-----------------------| 
D|-7-5---5------------------------14--15--14---------------------------------| 
A|-----7---7-5-7-5-7-5-------------------------------------------------------| 
D|----------------------5--3b~~0---------------------------------------------| 

e|-12--12-----------------------------15--17b~~~-22~~~20-22-24-20------------| 
B|-12--12--12-15-12-11-12----------15-----------------------------22-20\17---| 
G|------------------------14h15h16-------------------------------------------| 
D|---------------------------------------------------------------------------| 
A|---------------------------------------------------------------------------| 
D|---------------------------------------------------------------------------| 

e|-20----19------------------------------------------------------------------| 
B|----17-----12b~~~8-10---10-------------------------------------------------| 
G|----------------------9----9---12------------------------------------------| 
D|-----------------------------------12-14-10-12-10----10--------------------| 
A|--------------------------------------------------12----7------------------| 
D|---------------------------------------------------------------------------| 

e|-------------------------17-15-------------------------------------------------| 
B|-------------------------------171715151717191915-131517131213151513-----------| 
G|-------------------7------------------------------------------------1614141212-| 
D|-/10-9---------------9~~~------------------------------------------------------| 
A|-------10-7-7----7-------------------------------------------------------------| 
D|--------------10---------------------------------------------------------------| 

e|---------------------------------------------------------------------------| 
B|---------------------------------------------------------------------------| 
G|--12121414-----------------------------------------------------------------| 
D|16--------16---------------------------------------------------------------| 
A|-------------17151415171417------------------------------------------------| 
D|---------------------------15~~~~\0----------------------------------------| 

verse 3 
2:28- 2:54 
Guitar Left 
e|---------------------------------------------------------------------------| 
B|---------------------------------------------------------------------------| 
G|---------------------------------------------------------------------------| 
D|---------------------------------------------------------------------------| 
A|3~3333335~557~773~3333335~557~770~0000002~227~778~8888888~888888-----------| 
D|3~3333335~557~773~3333335~557~770~0000002~227~778~8888888~888888-----------| 


Guitar Right 
e|---------------------------------------------------------------------------| 
B|10~101010101010-8~~8-8--10--13-10~101010101010---8~8-10-10-6--6666-XX8/3---| 
G|-9~9-9-9-9-9-9--7-~7-7--9---12--9~9-9-9-9-9-9--7-7~7-9--9--5--5555-XX7/2---| 
D|---------------------------------------------------------------------------| 
A|---------------------------------------------------------------------------| 
D|---------------------------------------------------------------------------| 

e|---------------------------------------------------------------------------| 
B|---------------------------------------------------------------------------| 
G|-7---5~~~~-7--7-7---7-7-7------77777779~-----------------------------------| 
D|-7---5~~~~-7--7-7---7-7-7------77777777~-----------------------------------| 
A|---------------------------------------------------------------------------| 
D|---------------------------------------------------------------------------| 


Pre-Chorus 2:54 - 3:09 

Right Guitar 
e|---------------------------------------------------------------------------| 
B|---------------------------------------------------------------------------| 
G|9~999999999999997~777777777777774~4444447~9~999~99------------7~77---------| 
D|7~777777777777775~555555555555552~2222225~7~777~775~557~779~995~559~~~9----| 
A|--------------------------------------------------3~335~557~77----7~~~7X6--| 
D|---------------------------------------------------------------------------| 

Left Guitar 
e|---------------------------------------------------------------------------| 
B|---------------------------------------------------------------------------| 
G|---------------------------------------------------------------------------| 
D|---------------------------------------------------------------------------| 
A|3~333-333-333-333-333-333-333-333-333-333-333-333-333-333-333--------------| 
D|3~333-333-333-333-333-333-333-333-333-333-333-333-333-333-333--------------| 

e|---------------------------------------------------------------------------| 
B|---------------------------------------------------------------------------| 
G|----------------------------------7~77-------------------------------------| 
D|----------------------5~557~779~995~559~~~~--------------------------------| 
A|2~222-222-2225~77~7~773~335~557~77----7~~~~--------------------------------| 
D|2~222-222-2225~77~7~77-----------------------------------------------------| 

Chorus/Outro 3:09 - 4:03 
Left Guitar 
e|---------------------------------------------------------------------------| 
B|---------------------------------------------------------------------------| 
G|--------------------------------------------------------99999999-----------| 
D|9~~7~~9~~~~~~~7~~~~~~~7~~~~~~~12~~9~7~9~~~~~~~7~~~~~~~77777777-------------| 
A|7~~5~~7~~~~~~~5~~~~~~~5~~~~~~~10~~7~5~7~~~~~~~5~~~~~~~---------------------| 
D|---------------------------------------------------------------------------| 



Right Guitar 
e|---------------------------------------------------------------------------| 
B|---------------------------------------------------------------------------| 
G|---------------------------------------------------------------------------| 
D|-9~~7~~5~~~~~~7~~~~~~4~4-4-4-4-4-4-4----------9~~7~~5~~5-5-5-5-5-XX7~~-----| 
A|-7~~5~~3~~~~~~5~~~~~~2~2-2-2-2-2-2-2-2-2-2-2--7~~5~-3~~3-3-3-3-3-XX5~~-----| 
D|-------------------------------------2-2-2-2-------------------------------| 

e|---------------------------------------------------------------------------| 
B|---------------------------------------------------------------------------| 
G|---------------------------------------------------------------------------| 
D|-7-7-7-7-7-7-------------------9~~7~~5~~~~777~~~~--------------------------| 
A|-5-5-5-5-5-5-3-3-3-3-3-3-3-3-3-7~~5~~3~~~~555~~~~2-2-2-2-2-2-2-2-2-2-2-2---| 
D|-------------3-3-3-3-3-3-3-3-3-------------------2-2-2-2-2-2-2-2-2-2-2-2---| 

e|---------------------------------------------------------------------------| 
B|---------------------------------------------------------------------------| 
G|---------------------------------------------------------------------------| 
D|9-7-5~~~4~~~5-4-2~~~----2-4-5~~~~~4~~~~~-----------------------------------| 
A|7-5-3~~~2~~~3-2-0~~~2~~~0-2-3~~~~~2~~~~~3~~~~------------------------------| 
D|--------------------2~~~----------------3~~~~------------------------------| 

************************************ 

| /   slide up 
| \   slide down 
| h   hammer-on 
| p   pull-off 
| ~   vibrato 
| +   harmonic 
| x   Mute note 
| b   Bend 
| pb  Pre-bend 
| br  Bend release 
| pbr Pre-bend release 
| brb Bend release bend 
************************************ 
		  

See also:

tabs Deep Purple - Strange kind of woman tabs Deep Purple - Smoke On The Water tabs Deep Purple - Time To Kill tabs Albert Hammond Jr - Gfc tabs Deep Purple - Soldier Of Fortune tabs Ira! - Nucleo De Base
e-chords

Other versions:

tabs Jeff Williams - I May Fall
auto scroll beats size up size down change color hide chords drawings
tab show chords e-chords YouTube Clip e-chords hide all tabs e-chords go to top tab

share