JEFF the Brotherhood

Bummer

JEFF the Brotherhood

tabs Beginner beginner

by  ABELAMIN

save to print version add songbook text version e-mail correct tuner
chordsukulelecavacokeyboardtabbassdrumsharmonicaflute Guitar Pro
close

there isn't a video lesson for this song

chords

Bummer

	  		


INTRO 
e|------------| 
B|------------| 
G|------------| 
D|-7-5-2-0----| 
A|------------| 
D|------------| 


VERSE 
e|-----------------------------------------------------------------------------| 
B|-----------------------------------------------------------------------------| 
G|-----------------------------------------------------------------------------| 
D|-3333333333333333-1010101010101010-55555555----------------------------------| 
A|-3333333333333333-1010101010101010-55555555----------------------------------| 
D|-3333333333333333-1010101010101010-55555555----------------------------------| 



e|----------------------------------------| 
B|----------------------------------------| 
G|----------------------------------------| 
D|-333333333333-777-5---------------------| 
A|-333333333333-777-5---------------------| 
D|-333333333333-777-5---------------------| 



e|-----------------------------------------------------------------------------| 
B|-----------------------------------------------------------------------------| 
G|-----------------------------------------------------------------------------| 
D|-3333333333333333-1010101010101010-55555555----------------------------------| 
A|-3333333333333333-1010101010101010-55555555----------------------------------| 
D|-3333333333333333-1010101010101010-55555555----------------------------------| 


PRE-CHORUS 
e|-----------------------------------------------------------------------------| 
B|-----------------------------------------------------------------------------| 
G|-----------------------------------------------------------------------------| 
D|-333333333333-5555-----------------------------------------------------------| 
A|-333333333333-5555-----------------------------------------------------------| 
D|-333333333333-5555-----------------------------------------------------------| 



CHORUS 
e|-----------------------------------------------------------------------------| 
B|-----------------------------------------------------------------------------| 
G|-----------------------------------------------------------------------------| 
D|-7777777-5-1010101010101010-33333333-----------------------------------------| 
A|-7777777-5-1010101010101010-33333333-----------------------------------------| 
D|-7777777-5-1010101010101010-33333333-----------------------------------------| 


SOLO #1 
e|---------------------------------| 
B|---------------------------------| 
G|---------------------------------| 
D|-12-10-------------10------------| 
A|-------12-10-10h12---12-10-------| 
D|---------------------------------| 



e|-----------------------------------------------------------------------------| 
B|-----------------------------------------------------------------------------| 
G|-----------------------------------------------------------------------------| 
D|-7777777-5-1010101010101010-33333333-----------------------------------------| 
A|-7777777-5-1010101010101010-33333333-----------------------------------------| 
D|-7777777-5-1010101010101010-33333333-----------------------------------------| 


SOLO #2 
e|-------------------------------| 
B|-------------------------------| 
G|-------------------------------| 
D|-12~-12~-12p10-----------------| 
A|----------------12p10-12-------| 
D|-------------------------------| 


BRIDGE 
e|--------------------------------| 
B|--------------------------------| 
G|--------------------------------| 
D|-121212-101010-888888-----------|    x2 
A|-121212-101010-888888-----------| 
D|-121212-101010-888888-----------| 


e|-----------------------------------------------------------------------------| 
B|-----------------------------------------------------------------------------| 
G|-----------------------------------------------------------------------------| 
D|-121212-101010-888-777-5555-3333333333333333---------------------------------| 
A|-121212-101010-888-777-5555-3333333333333333---------------------------------| 
D|-121212-101010-888-777-5555-3333333333333333---------------------------------| 



e|-------------------------| 
B|-------------------------| 
G|-------------------------| 
D|-777-5-101010-5----------|   x4 
A|-777-5-101010-5----------| 
D|-777-5-101010-5----------| 


*Repeat everything once more and end on: 
e|-----| 
B|-----| 
G|-----| 
D|-10--| 
A|-10--| 
D|-10--| 
		  

auto scroll beats size up size down change color hide chords drawings
tab show chords e-chords YouTube Clip e-chords hide all tabs e-chords go to top tab

share