Jazz Hands

Remember The Boat Times

Jazz Hands

tabs

by  ALEFFEDERICO

save to print version add songbook text version e-mail correct tuner
chordsukulelecavacokeyboardtabbassdrumsharmonicaflute Guitar Pro
close

there isn't a video lesson for this song

chords

Remember The Boat Times

	  		
tuning: open Cmaj7 (CGCGBE) 

listen for rhythm 

whole song 

E|--3p0---------------------------------------|-------------------------------------------| 
B|-------3p0-----------------------------3/5--|-------------------------------------------| 
G|---------------5p2p0-----0------------------|--5/7\5p0----------------------------------| 
C|----------------------------2p0--0----------|--------------7p5p4p0-----0----------------| 
G|--------------------------------------------|--------------------------------4p2-----0--| 
C|--0---------0---------0-------0-------------|-----------0-----------0-----0----0--------| 

E|--3p0---------------------------------------|-------------------------------------------| 
B|-------3p0-----------------------------3/5--|---------------------------5-----------5---| 
G|---------------5p2p0-----0------------------|--5/7\5p0------------------5-----------5---| 
C|----------------------------2p0--0----------|--------------7p5p4------------------------| 
G|--------------------------------------------|-------------------------------------------| 
C|--0---------0---------0-------0-------------|-----------0---------5-----------5---------| 

************************************ 

| p   Pull-off 
| /   Slide up 
| \   Slide down 

************************************ 
		  

Full key step upFull key step up
Half key step upHalf key step up
Half key step downHalf key step down
Full key step downFull key step down
hide glossary

See also:

tabs Deep Purple - Burn tabs Deep Purple - Lazy tabs Deep Purple - Deep Purple - Smoke On The Water tabs Deep Purple - Stormbringer tabs Deep Purple - Demon's Eye tabs Albert Hammond Jr - Holiday
e-chords

Other versions:

tabs Jazz Hands - Remember The Boat Times
auto scroll beats size up size down change color hide chords drawings
tab show chords e-chords YouTube Clip e-chords hide all tabs e-chords go to top tab

share