Jason Mraz

home > Jason Mraz

Winter Wonderland Live Tab

Jason Mraz

Difficulty: IntermediateIntermediate

by PAULLET3

tuner correct add songbook print version text version save to e-mail
chordsukulelecavacokeyboardtabbassdrumsharmonicsflute Guitar Pro
chords

Winter Wonderland Live

  		

The (x) means to slap the string, which is always done on the beat 4. 

 Intro: 
  Fmaj7               Fmaj7 
|-------------(x)---|-------------(x)---| 
|-----1-----1-(x)---|---1---1---1-(x)---| 
|-----2-----2-(x)---|---2---2---2-(x)---| 
|-----2-----2-(x)---|---2---2---2-(x)---| 
|-------------(x)---|-------------(x)---| 
|-1-----0-1---(x)-0-|-1-----1-----(x)-0-| 


 AVerse: 
  Fmaj7               Fmaj7              C                   C 
|-------------(x)---|------------(x)---|-------------(x)---|-------------(x)---| 
|-----1-----1-(x)---|---1---1--1-(x)---|-----5-----5-(x)---|---5---5---5-(x)---| 
|-----2-----2-(x)---|---2---2--2-(x)---|-----5-----5-(x)---|---5---5---5-(x)---| 
|-----2-----2-(x)---|---2---2--2-(x)---|-----5-----5-(x)---|---5---5---5-(x)---| 
|-------------(x)---|------------(x)-0-|-3---3-0-3-3-(x)-3-|-------3-----(x)-0-| 
|-1-----0-1---(x)-0-|-1-----1----(x)---|-------------(x)---|-------------(x)---| 

  C       Bb        Am7   Gm7         Gm7     C 
|-----------------|-----------------|-----------------| 
|-----5-------3---|---5---3---3-----|-----3-------5---| 
|-----5-------3---|---5---3---3-----|-----3-------5---| 
|-----5-------3---|---5---3---3-----|-----3-------5---| 
|-3---3-0-1---1-0-|-----------------|-------0-3-------| 
|-----------------|-5-----3-------0-|-3-------------0-| 

  Fmaj7               Fmaj7 
|-------------(x)---|-------------(x)---| 
|-----1-----1-(x)---|---1---1---1-(x)---| 
|-----2-----2-(x)---|---2---2---2-(x)---| 
|-----2-----2-(x)---|---2---2---2-(x)---| 
|-------------(x)---|-------------(x)---| 
|-1-----0-1---(x)-0-|-1-----1-----(x)-0-| 



 BBridge: 
  A       D         A                   A       D         A 
|-----------------|-------------(x)---|-----------------|-------------(x)---| 
|-------------7---|-------------(x)---|-------------7---|-------------(x)---| 
|-----6-------7---|-----6-----6-(x)---|-----6-------7---|-----6-----6-(x)---| 
|-----7-------7---|-----7-----7-(x)---|-----7-------7---|-----7-----7-(x)---| 
|-----7---5-----0-|-----7-----7-(x)---|-----7---5-----0-|-----7-----7-(x)---| 
|-5---------------|-5-----0-5---(x)-0-|-5---------------|-5-----0-5---(x)-0-| 

  C       F         C                     C      G        C7 
|-----------------|--------------(x)---|----------------|---------------| 
|------------10---|--------------(x)---|----------------|---------------| 
|-----9------10---|-----9------9-(x)---|--9------4------|--9------------| 
|----10------10---|----10-----10-(x)---|-10------5------|--8------------| 
|----10---8---8-0-|----10-----10-(x)---|-10------5------|-10------------| 
|-8---------------|-8-----0-8----(x)-0-|--8------3------|--8------------| 



 Jingle Bells outro: 
  F/C             F/C    Am7 
|-------1-------|-1------0------| 
|---------1-----|-1------1------| 
|-2---------2---|-2------0------| 
|-3-------------|-3------2------| 
|-3-------------|-3------0------| 
|---------------|---------------| 

 
	  

Full key step upFull key step up
Half key step upHalf key step up
Half key step downHalf key step down
Full key step downFull key step down
Search Paypal
auto scroll beats size up size down change color hide chords drawings
tab show chords e-chords YouTube Clip e-chords hide all tabs e-chords go to top tab