Jason Mraz

home > Jason Mraz

Song For A Friend Tab

Jason Mraz

Difficulty: BeginnerBeginner

tuner correct add songbook print version text version save to e-mail
chordsukulelecavacokeyboardtabbassdrumsharmonicsflute Guitar Pro
chords

Song For A Friend

  		Tabbed By:  Meissa Dia 
Email:  [email protected] 

It's not a perfect tab, but it sounds pretty good. 
I haven't tabbed all the variations he uses, but 
you'll need to listen to the song to get the rhythm 
anyway. 

{chords} 

(1) E7/sus2    024430 
(2) Bsus2/A    x04422 
(3) Em9/G      3x4430 
(4) G6/E       025430 
(5) A7         x02020 

       verse                Bridge 
    (1) (2) (3)      (4) (5) (1) (2) (3) 

e----0---2---0--------0---0---0---2---0-| 
B----3---2---3--------3---2---3---2---3-| 
G----4---4---4--------4---0---4---4---4-| 
D----4---4---4--------5---2---4---4---4-| 
A----2---0---x--------2---0---2---0---x-| 
E----0---x---3--------0---x---0---x---3-| 


{Intro/Verse} 

  (1)                     (2) 

e-------0----0-----------------2-------| 
B-------3------3------3--------2-------| 
G-------4-----------4----------4-------| 
D----4-----------------------4---------| 
A--2-------2-----2------2--0-----------| 
E--------------------------------------| 

                 (3) 
e----2----------------0---0------------| 
B------2-----2--------3-----3-----3----| 
G----------4----------4---------4------| 
D-------------------4------------------| 
A--0-----0-----0-----------------------| 
E-----------------3-----3-----3--------| 



     (1)       |->verse only<-| 
e--------------------------------------| 
B--------------------------------------| 
G---------4--------4-------------------| 
D---------4----2---4-------------------| 
A-------2-2--------2--0h2--------------| 
E--2--0-----0h2--2---------------------| 


{Bridge} 

  (4)          (5) 

e-------0-----------0----0--------------| 
B------3-3----------2------2-----2------| 
G-----4---4---------0----------0--------| 
D----5------------2---------------------| 
A---2-------2---0------0-----0-----0----| 
E--0------------------------------------| 

  (1)       (2)      (3) 
e------0---------2--------0---0---------| 
B------2---------2--------3-----3-----3-| 
G------4--4------4--4-----4---------4---| 
D----4---------4--------4---------------| 
A--2-----2---0-----0--------------------| 
E---------------------3-----3-----3-----| 

   (4)            (5) 

e---------0-0------0--------------------| 
B---------3---3----2--------------------| 
G--------4---------0--------------------| 
D------5-----------2--------------------| 
A----2----------2--0-----1--------------|back to verse 
E-2-0-----------------------------------| 
	  

Full key step upFull key step up
Half key step upHalf key step up
Half key step downHalf key step down
Full key step downFull key step down
Search Paypal
auto scroll beats size up size down change color hide chords drawings
tab show chords e-chords YouTube Clip e-chords hide all tabs e-chords go to top tab