Jason Mraz

home > Jason Mraz

Let's See What The Night Can Do Tab

Jason Mraz

Difficulty: nolevelnolevel

by IronPower4Ever

tuner correct add songbook print version text version save to e-mail
chordsukulelecavacokeyboardtabbassdrumsharmonicsflute Guitar Pro
chords

Let's See What The Night Can Do

  		
Intro 

   (G)                                     
e|---------------------------------------------------------| 
B|--------3------------3------------3----------------------| 
G|----0-----0------0-----0------0-----0------0------0------| 
D|------0-----0------0-----0------0-----0------0------0----| 
A|---------------------------------------------------------| 
E|--3------------3------------3------------3------2--------| 

   (Em) 
e|---------------------------------------------------------| 
B|--------0------------0------------0-------------0--------| 
G|----0-----0------0-----0------0-----0-------0-----0------| 
D|------2-----2------2-----2------2-----2-------2-----2----| 
A|---------------------------------------------------------| 
E|--0------------0------------0-------------0--------------| 

   (Cadd2) 
e|---------------------------------------------------------| 
B|--------3------------3------------3------------3---------| 
G|----0-----0------0-----0------0-----0------0-----0-------| 
D|------2-----2------2-----2------2-----2------2-----2-----| 
A|--3------------3------------3------------3---------------| 
E|---------------------------------------------------------| 

   (G)                        (D) 
e|---------------------------------------------------------| 
B|--------3------------3-------------3------------3--------| 
G|----0-----0------0-----0-------2-----2------2-----2------| 
D|------2-----2------2-----2---0---0-----0--0---0-----0----| 
A|---------------------------------------------------------| 
E|--3------------3-----------------------------------------| 
	  

Full key step upFull key step up
Half key step upHalf key step up
Half key step downHalf key step down
Full key step downFull key step down
Search Paypal
auto scroll beats size up size down change color hide chords drawings
tab show chords e-chords YouTube Clip e-chords hide all tabs e-chords go to top tab