Jason Mraz

home > Jason Mraz

Fly Me To The Moon Tab

Jason Mraz

Difficulty: ExpertExpert

by abelamin

tuner correct add songbook print version text version save to e-mail
chordsukulelecavacokeyboardtabbassdrumsharmonicsflute Guitar Pro
chords

Fly Me To The Moon

  		

Verse: Fly me to the moon, and let me play among the stars... 
e|---------------------------------------------------------------| 
B|-5-x-5-x-5-x-5-x-6-x-6-x-6-x-6-x-5-x-5-x-5-x-5-x-5-x-5-x-5-x-5-| 
G|-5-x-5-x-5-x-5-x-5-x-5-x-5-x-5-x-4-x-4-x-4-x-4-x-4-x-4-x-4-x-4-| 
D|-5-x-5-x-5-x-5-x-7-x-7-x-7-x-7-x-3-x-3-x-3-x-3-x-5-x-5-x-5-x-5-| 
A|-x-x-x-x-x-x-x-x-5-x-5-x-5-x-5-x-x-x-x-x-x-x-x-x-3-x-3-x-3-x-3-| 
E|-5-x-5-x-5-x-5-x-x-x-x-x-x-x-x-x-3-x-3-x-3-x-3-x-x-x-x-x-x-x-x-| 

And let me know what spring is like, on Jupiter and Mars... 

e|---------------------------------------------------------------| 
B|-3-x-3-x-3-x-3-x-3-x-3-x-3-x-3-x-5-x-5-x-5-x-5-x-5-x-5-x-5-x-5-| 
G|-2-x-2-x-2-x-2-x-2-x-2-x-2-x-2-x-6-x-6-x-6-x-6-x-5-x-5-x-5-x-5-| 
D|-1-x-1-x-1-x-1-x-3-x-3-x-3-x-3-x-7-x-7-x-7-x-7-x-5-x-5-x-5-x-5-| 
A|-x-x-x-x-x-x-x-x-1-x-1-x-1-x-1-x-7-x-7-x-7-x-7-x-x-x-x-x-x-x-x-| 
E|-1-x-1-x-1-x-1-x-x-x-x-x-x-x-x-x-----------------5-x-5-x-5-x-5-| 

In other words, hold my hand. In other words, darling kiss me.... 
e|-----------------------------------------------| 
B|-6-x-6-x-6-x-6-x-5-x-5-x-5-x-5-x-5-x-5-x-5-x-5-| 
G|-5-x-5-x-5-x-5-x-4-x-4-x-4-x-4-x-4-x-4-x-4-x-4-| 
D|-7-x-7-x-7-x-7-x-3-x-3-x-3-x-3-x-5-x-5-x-5-x-5-| 
A|-5-x-5-x-5-x-5-x-x-x-x-x-x-x-x-x-3-x-3-x-3-x-3-| 
E|-x-x-x-x-x-x-x-x-3-x-3-x-3-x-3-x-x-x-x-x-x-x-x-| 

e|---------------| 
B|-5-x-5-x-5-x-5-| 
G|-5-x-5-x-5-x-5-| 
D|-5-x-5-x-5-x-5-| 
A|-x-x-x-x-x-x-x-| 
E|-5-x-5-x-5-x-5-| 

e|-----------------------------------------------| 
B|-6-x-6-x-6-x-6-x-5-x-5-x-5-x-5-x-5-x-5-x-5-x-5-| 
G|-5-x-5-x-5-x-5-x-4-x-4-x-4-x-4-x-4-x-4-x-4-x-4-| 
D|-7-x-7-x-7-x-7-x-3-x-3-x-3-x-3-x-5-x-5-x-5-x-5-| 
A|-5-x-5-x-5-x-5-x-x-x-x-x-x-x-x-x-3-x-3-x-3-x-3-| 
E|-x-x-x-x-x-x-x-x-3-x-3-x-3-x-3-x-x-x-x-x-x-x-x-| 

e|--------------| 
B|-x-5-5-5-5-5--| 
G|-x-6-6-6-6-6--| 
D|-x-7-7-7-7-7--| 
A|-x-7-7-7-7-7--| 
E|--------------| 

Fill my heart with joy, and let me sing forever more... 

e|---------------------------------------------------------------| 
B|-5-x-5-x-5-x-5-x-6-x-6-x-6-x-6-x-5-x-5-x-5-x-5-x-5-x-5-x-5-x-5-| 
G|-5-x-5-x-5-x-5-x-5-x-5-x-5-x-5-x-4-x-4-x-4-x-4-x-4-x-4-x-4-x-4-| 
D|-5-x-5-x-5-x-5-x-7-x-7-x-7-x-7-x-3-x-3-x-3-x-3-x-5-x-5-x-5-x-5-| 
A|-x-x-x-x-x-x-x-x-5-x-5-x-5-x-5-x-x-x-x-x-x-x-x-x-3-x-3-x-3-x-3-| 
E|-5-x-5-x-5-x-5-x-x-x-x-x-x-x-x-x-3-x-3-x-3-x-3-x-x-x-x-x-x-x-x-| 

Cause you are all I've longed for, all I've worshiped, and all I've 
adored... 

e|---------------------------------------------------------------| 
B|-3-x-3-x-3-x-3-x-3-x-3-x-3-x-3-x-5-x-5-x-5-x-5-x-5-x-5-x-5-x-5-| 
G|-2-x-2-x-2-x-2-x-2-x-2-x-2-x-2-x-6-x-6-x-6-x-6-x-5-x-5-x-5-x-5-| 
D|-1-x-1-x-1-x-1-x-3-x-3-x-3-x-3-x-7-x-7-x-7-x-7-x-5-x-5-x-5-x-5-| 
A|-x-x-x-x-x-x-x-x-1-x-1-x-1-x-1-x-7-x-7-x-7-x-7-x-x-x-x-x-x-x-x-| 
E|-1-x-1-x-1-x-1-x-x-x-x-x-x-x-x-x-----------------5-x-5-x-5-x-5-| 

In other words, please be true! In other words, In other words, 
In other words, I love you... 

e|-----------------------------------------------| 
B|-6-x-6-x-6-x-6-x-5-x-5-x-5-x-5-x-5-x-5-x-5-x-5-| 
G|-5-x-5-x-5-x-5-x-4-x-4-x-4-x-4-x-4-x-4-x-4-x-4-| 
D|-7-x-7-x-7-x-7-x-3-x-3-x-3-x-3-x-5-x-5-x-5-x-5-| 
A|-5-x-5-x-5-x-5-x-x-x-x-x-x-x-x-x-3-x-3-x-3-x-3-| 
E|-x-x-x-x-x-x-x-x-3-x-3-x-3-x-3-x-x-x-x-x-x-x-x-| 

e|--------------| 
B|-x-5-5-5-5-5--| 
G|-x-6-6-6-6-6--| 
D|-x-7-7-7-7-7--| 
A|-x-7-7-7-7-7--| 
E|--------------| 

e|-----------------------------------------------| 
B|-6-x-6-x-6-x-6-x-5-x-5-x-5-x-5-x-5-x-5-x-5-x-5-| 
G|-5-x-5-x-5-x-5-x-4-x-4-x-4-x-4-x-4-x-4-x-4-x-4-| 
D|-7-x-7-x-7-x-7-x-3-x-3-x-3-x-3-x-5-x-5-x-5-x-5-| 
A|-5-x-5-x-5-x-5-x-x-x-x-x-x-x-x-x-3-x-3-x-3-x-3-| 
E|-x-x-x-x-x-x-x-x-3-x-3-x-3-x-3-x-x-x-x-x-x-x-x-| 

e|---------------| 
B|-5-x-5-x-5-x-5-| 
G|-5-x-5-x-5-x-5-| 
D|-5-x-5-x-5-x-5-| 
A|-x-x-x-x-x-x-x-| 
E|-5-x-5-x-5-x-5-| 

e|-----------------------------------| 
B|-6-x-6-x-6-x-6-x-5-x-5-x-5-x-5-x-5-| 
G|-5-x-5-x-5-x-5-x-4-x-4-x-4-x-4-x-4-| 
D|-7-x-7-x-7-x-7-x-3-x-3-x-3-x-3-x-5-| 
A|-5-x-5-x-5-x-5-x-x-x-x-x-x-x-x-x-3-| 
E|-x-x-x-x-x-x-x-x-3-x-3-x-3-x-3-x-x-| 

(Then you just do this part again without singing) 

e|---------------------------------------------------------------| 
B|-5-x-5-x-5-x-5-x-6-x-6-x-6-x-6-x-5-x-5-x-5-x-5-x-5-x-5-x-5-x-5-| 
G|-5-x-5-x-5-x-5-x-5-x-5-x-5-x-5-x-4-x-4-x-4-x-4-x-4-x-4-x-4-x-4-| 
D|-5-x-5-x-5-x-5-x-7-x-7-x-7-x-7-x-3-x-3-x-3-x-3-x-5-x-5-x-5-x-5-| 
A|-x-x-x-x-x-x-x-x-5-x-5-x-5-x-5-x-x-x-x-x-x-x-x-x-3-x-3-x-3-x-3-| 
E|-5-x-5-x-5-x-5-x-x-x-x-x-x-x-x-x-3-x-3-x-3-x-3-x-x-x-x-x-x-x-x-| 

e|---------------------------------------------------------------| 
B|-3-x-3-x-3-x-3-x-3-x-3-x-3-x-3-x-5-x-5-x-5-x-5-x-5-x-5-x-5-x-5-| 
G|-2-x-2-x-2-x-2-x-2-x-2-x-2-x-2-x-6-x-6-x-6-x-6-x-5-x-5-x-5-x-5-| 
D|-1-x-1-x-1-x-1-x-3-x-3-x-3-x-3-x-7-x-7-x-7-x-7-x-5-x-5-x-5-x-5-| 
A|-x-x-x-x-x-x-x-x-1-x-1-x-1-x-1-x-7-x-7-x-7-x-7-x-x-x-x-x-x-x-x-| 
E|-1-x-1-x-1-x-1-x-x-x-x-x-x-x-x-x-----------------5-x-5-x-5-x-5-| 

And fill my heart with joy, and let me sing forever more! 

e|---------------------------------------------------------------| 
B|-5-x-5-x-5-x-5-x-6-x-6-x-6-x-6-x-5-x-5-x-5-x-5-x-5-x-5-x-5-x-5-| 
G|-5-x-5-x-5-x-5-x-5-x-5-x-5-x-5-x-4-x-4-x-4-x-4-x-4-x-4-x-4-x-4-| 
D|-5-x-5-x-5-x-5-x-7-x-7-x-7-x-7-x-3-x-3-x-3-x-3-x-5-x-5-x-5-x-5-| 
A|-x-x-x-x-x-x-x-x-5-x-5-x-5-x-5-x-x-x-x-x-x-x-x-x-3-x-3-x-3-x-3-| 
E|-5-x-5-x-5-x-5-x-x-x-x-x-x-x-x-x-3-x-3-x-3-x-3-x-x-x-x-x-x-x-x-| 

Cause you are all I've longed for, all I've worshiped, and all 
I've adored! 

e|---------------------------------------------------------------| 
B|-3-x-3-x-3-x-3-x-3-x-3-x-3-x-3-x-5-x-5-x-5-x-5-x-5-x-5-x-5-x-5-| 
G|-2-x-2-x-2-x-2-x-2-x-2-x-2-x-2-x-6-x-6-x-6-x-6-x-5-x-5-x-5-x-5-| 
D|-1-x-1-x-1-x-1-x-3-x-3-x-3-x-3-x-7-x-7-x-7-x-7-x-5-x-5-x-5-x-5-| 
A|-x-x-x-x-x-x-x-x-1-x-1-x-1-x-1-x-7-x-7-x-7-x-7-x-x-x-x-x-x-x-x-| 
E|-1-x-1-x-1-x-1-x-x-x-x-x-x-x-x-x-----------------5-x-5-x-5-x-5-| 

In other words, please be true! In other words, In other words, 
In other words, I love you. 

e|-----------------------------------------------| 
B|-6-x-6-x-6-x-6-x-5-x-5-x-5-x-5-x-5-x-5-x-5-x-5-| 
G|-5-x-5-x-5-x-5-x-4-x-4-x-4-x-4-x-4-x-4-x-4-x-4-| 
D|-7-x-7-x-7-x-7-x-3-x-3-x-3-x-3-x-5-x-5-x-5-x-5-| 
A|-5-x-5-x-5-x-5-x-x-x-x-x-x-x-x-x-3-x-3-x-3-x-3-| 
E|-x-x-x-x-x-x-x-x-3-x-3-x-3-x-3-x-x-x-x-x-x-x-x-| 

e|--------------| 
B|-x-5-5-5-5-5--| 
G|-x-6-6-6-6-6--| 
D|-x-7-7-7-7-7--| 
A|-x-7-7-7-7-7--| 
E|--------------| 

e|-----------------------------------------------| 
B|-6-x-6-x-6-x-6-x-5-x-5-x-5-x-5-x-5-x-5-x-5-x-5-| 
G|-5-x-5-x-5-x-5-x-4-x-4-x-4-x-4-x-4-x-4-x-4-x-4-| 
D|-7-x-7-x-7-x-7-x-3-x-3-x-3-x-3-x-5-x-5-x-5-x-5-| 
A|-5-x-5-x-5-x-5-x-x-x-x-x-x-x-x-x-3-x-3-x-3-x-3-| 
E|-x-x-x-x-x-x-x-x-3-x-3-x-3-x-3-x-x-x-x-x-x-x-x-| 

e|---------------| 
B|-5-x-5-x-5-x-5-| 
G|-5-x-5-x-5-x-5-| 
D|-5-x-5-x-5-x-5-| 
A|-x-x-x-x-x-x-x-| 
E|-5-x-5-x-5-x-5-| 

e|-----------------------------------| 
B|-6-x-6-x-6-x-6-x-5-x-5-x-5-x-5-x-5-| 
G|-5-x-5-x-5-x-5-x-4-x-4-x-4-x-4-x-4-| 
D|-7-x-7-x-7-x-7-x-3-x-3-x-3-x-3-x-5-| 
A|-5-x-5-x-5-x-5-x-x-x-x-x-x-x-x-x-3-| 
E|-x-x-x-x-x-x-x-x-3-x-3-x-3-x-3-x-x-| 

 
	  

Search Paypal
auto scroll beats size up size down change color hide chords drawings
tab show chords e-chords YouTube Clip e-chords hide all tabs e-chords go to top tab