Jason Mraz

home > Jason Mraz

Eyes Open (remember My Name) Tab

Jason Mraz

Difficulty: BeginnerBeginner

tuner correct add songbook print version text version save to e-mail
chordsukulelecavacokeyboardtabbassdrumsharmonicsflute Guitar Pro
chords

Eyes Open (remember My Name)

  		Normal Tuning 
Capo on 2 
 
Intro 
-------------------------------------------------------- 
-------------------------------------------------------- 
-8h9-9-9-8-8h9-9-8h9-9-9-8-8h9-9-6/9---9\6-6\4-4/6-6-2-2 
-9---9-9-9-9---9-9---9-9-9-9---9-7/11-11\7-7\6-6/7-7-2-2 
-7---7-7-7-7---7-7---7-7-7-7---------------------------- 
-------------------------------------------------------- 
 
Verse 
-------------------------------- 
-------------------------------- 
-8-8-9-9-8-8-9-9-6-6-6-6-2-2-2-2 
-9-9-9-9-9-9-9-9-7-7-7-7-2-2-2-2 
-7-7-7-7-7-7-7-7---------------- 
-------------------------------- 
 
Chorus 
----------------------- 
-5-5-5-5-5-7-7-7-7-7--- 
-5-5-5-5-5-7-7-7-7-7--- 
----------------------- 
-5-5-5-5-5-7-7-7-7-7--- 
 

	  

Search Paypal
auto scroll beats size up size down change color hide chords drawings
tab show chords e-chords YouTube Clip e-chords hide all tabs e-chords go to top tab