Jason Mraz

home > Jason Mraz

Dream Life Of Rand Mcnally Tab

Jason Mraz

Difficulty: nolevelnolevel

tuner correct add songbook print version text version save to e-mail
chordsukulelecavacokeyboardtabbassdrumsharmonicsflute Guitar Pro
chords

Dream Life Of Rand Mcnally

  		By: Jason Mraz 
Tabbed by: Jon Micetic 
 
Tunning: Drop D (DADGBE) -  
 
Verse 
D -----0------------------- 
A -----0------------------- 
G -----7------6------------ 
D -----7------7------5--7-- 
A -----5------0------5--7-- 
D -0-0----4-4----5-5----7-- 
 
Chorus 
E -0-0-0-0-0-0-0-0-0-0-0-0-0-0-- 
A -0-0-0-0-0-0-0-0-0-0-0-0-0-0-- 
G -7-7-7-7-7-7-7-1-1-1-1-1-1-1-- 
D -9-9-9-9-9-9-9-2-2-2-2-2-2-2-- 
A -9-9-9-9-9-9-9-2-2-2-2-2-2-2-- 
D -0-0-0-0-0-0-0-0-0-0-0-0-0-0-- 
 
Outro 
E -0---0---0-- 
A -0---0---0-- 
G -7---2---1-- 
D -9---4---2-- 
A -9---4---2-- 
D -0---0---0-- 
 

	  

Full key step upFull key step up
Half key step upHalf key step up
Half key step downHalf key step down
Full key step downFull key step down
Search Paypal
auto scroll beats size up size down change color hide chords drawings
tab show chords e-chords YouTube Clip e-chords hide all tabs e-chords go to top tab