Jars of Clay

Like A Child

Jars of Clay

tabs

save to print version add songbook text version e-mail correct tuner
chordsukulelecavacokeyboardtabbassdrumsharmonicaflute Guitar Pro
close

there isn't a video lesson for this song

chords

Like A Child

Year: 1995 - Album: Jars of Clay

Written by Dan Haseltine/Charlie Lowell/Stephen Mason/Matt Odmark

	  		Intro 
A-----2h3-3p2-----2h3-3p2-----2h3-3p2--- 
E-3-3---------3-3---------3-3---------3- 
 
Verse 
G, C 
 
Chorus 
D, C, G, C  
(it goes like this) 
  D    C    G C    C   G 
e-2----3----3-3----3-3-3------------------------ 
B-3----3----3-3----3-3-3------------------------ 
G-2----0----0-0----0-0-0------------------------ 
D-0----2----0-2----2-0-0------------------------ 
A-0----3----2-3----3-2-2------------------------ 
E-0----x----3-x----x-x-3------------------------ 
 
Listen to the song to figure out timings and everything, and don't
hesitate to send me corrections if you think differently. 
 
     -dotyboy87 
 

		  

Full key step upFull key step up
Half key step upHalf key step up
Half key step downHalf key step down
Full key step downFull key step down
auto scroll beats size up size down change color hide chords drawings
tab show chords e-chords YouTube Clip e-chords hide all tabs e-chords go to top tab

share