Jars of Clay

Frail

Jars of Clay

tabs Intermediate intermediate

save to print version add songbook text version e-mail correct tuner
chordsukulelecavacokeyboardtabbassdrumsharmonicaflute Guitar Pro
close

there isn't a video lesson for this song

chords

Frail

Year: 1997 - Album: Much Afraid

	  		 
Jars Of Clay - Frail 
 
TABBED BY: theshinman77 
  This song was too repetitive for me to chart the entire song which is why I just 
tabbed the variations. If you'd like to perfect this song then you can listen 
to the album and figure out where they are used. In case you were wondering, this 
entire song is finger-picked. 
 
Tuning: Standard {EADGBE} 
 
Key:   p   = pull off 
       h   = hammer on 
       *   = let ring 
 
 
 
INTRO/VERSE 
 
Variation 1:                                         continue to tag... 
 E|---2-----------2-----------2-------2-----------2-----------2-----| 
 B|---------3-----------3-------3-----------3-----------3-------3---| 
 G|-------0---0-------0---0---------------0---0-------0---0---------| 
 D|-2---2-------2---2-------2-------2---2-------2---2-------2-------| 
 A|-----------------------------------------------------------------| 
 E|(0*)----------------------------(0*)-----------------------------| 
 
Variation 2:                                         continue to tag... 
 E|---2-----------2-----------2-------2-----------2-----------2--p0-| 
 B|---------3-----------3-------3-----------3-----------3-------3---| 
 G|-------0---0-------0---0---------------0---0-------0---0---------| 
 D|-2---2-------2---2-------2-------2---2-------2---2-------2-------| 
 A|-----------------------------------------------------------------| 
 E|(0*)----------------------------(0*)-----------------------------| 
 
Variation 3:                                         continue to tag... 
 E|---2-----------2-----------2-------2-----------2-----------2--h3-| 
 B|---------3-----------3-------3-----------3-----------3-------3---| 
 G|-------0---0-------0---0---------------0---0-------0---0---------| 
 D|-2---2-------2---2-------2-------2---2-------2---2-------2-------| 
 A|-----------------------------------------------------------------| 
 E|(0*)----------------------------(0*)-----------------------------| 
 
-=(Note: Although it is not how Jars Of Clay plays it, I prefer to play the first 
note of the above sequences as an open E-string.)=- 
 
 
Tag: 
 E|---------0-----------0-------------------0-----------0-----------| 
 B|---3-----------3-----------3---3---3-----------3-----------3-----| 
 G|-----0-----0-----0-----0-------------0-----0-----0-----0-----0---| 
 D|-------2-----2-----2-------------------2-----2-----2-----2-------| 
 A|-3*----------------------3---2---0*------------------------------| 
 E|-----------------------------------------------------------------| 
 
 
 
CHORUS 
 
 E|---0-----2-----3-----2-----3-------3-----2-----0-----2-----3-----| 
 B|-----2-----2-----2-----2-----2-------2-----2-----2-----2-----2---| 
 G|-------0-----0-----0-----0-----0-------0-----0-----0-----0-----0-| 
 D|-----------------------------------------------------------------| 
 A|---------------------------------3*------------------------------| 
 E|-3*--------------------------------------------------------------| 
 
 E|---3-----2-----0-----2-----3-------3-----2-----0-----2-----3-----| 
 B|-----2-----2-----2-----2-----2-------2-----2-----2-----2-----2---| 
 G|-------0-----0-----0-----0-----0-------0-----0-----0-----0-----0-| 
 D|-----------------------------------------------------------------| 
 A|---------------------------------3*------------------------------| 
 E|-3*--------------------------------------------------------------| 
 
                                                  keep repeating until... 
 E|---2-----2-----2-----2---2h3p2-0-----------0-----------0-----------| 
 B|-----3-----3-----3-----3-------------3-----------3-----------3-----| 
 G|-------2-----2-----2-------------------0-----0-----0-----0-----0---| 
 D|-0*--------------------------------------2-----2-----2-----2-------| 
 A|-----------------------------------3*------------------------------| 
 E|-------------------------------------------------------------------| 
 
   ...this tag 
 E|---2-----2-----2-----2---2h3p2-0-----------0-----------0-----------| 
 B|-----3-----3-----3-----3-------------3-----------3-----------0---0-| 
 G|-------2-----2-----2-------------------0-----0-----0-----0---------| 
 D|-0*--------------------------------------2-----2-----2-------------| 
 A|-----------------------------------3*----------------------3---2---| 
 E|-------------------------------------------------------------------| 
 
 E|---------0---------0*-| 
 B|---3--------------3*--| 
 G|-----0-----0-----0*---| 
 D|-------2-----2--2*----| 
 A|-0*------------0*-----| 
 E|----------------------| 
 
 
 
ENDING 
 
   {6:18}                                                         4x 
 E|---2-----------2-----------2-------2-----------2-----------2-----|----| 
 B|---------3-----------3-------3-----------3-----------3-------3---|----| 
 G|-------0---0-------0---0---------------0---0-------0---0---------|----| 
 D|-2---2-------2---2-------2-------2---2-------2---2-------2-------|-2*-| 
 A|-----------------------------------------------------------------|----| 
 E|(0*)----------------------------(0*)-----------------------------|----| 
 
-=(Note: Slow tempo gradually.)=- 
 

		  

See also:

tabs Bloodgood - Out of the darkness tabs Chris Tomlin - Not To Us tabs FFH - one of these days tabs Hank Williams - I'm So Lonesome I Could Cry tabs Audio Adrenaline - Free Ride tabs Caedmon's Call - Lead of Love
e-chords

Other versions:

tabs Finch - Frail tabs Jars of Clay - Frail tabs Finch - Frail (ver. 2) tabs Jars of Clay - Frail (ver. 2) tabs Jars of Clay - Frail2 tabs Hammock - Frailty For The Dearly Departed
auto scroll beats size up size down change color hide chords drawings
tab show chords e-chords YouTube Clip e-chords hide all tabs e-chords go to top tab

share