Japandroids

Younger Us

Japandroids

tabs

by  ALYSLIMA

save to print version add songbook text version e-mail correct tuner
chordsukulelecavacokeyboardtabbassdrumsharmonicaflute Guitar Pro
close

there isn't a video lesson for this song

chords

Younger Us

	  		
Intro/Riff (Repeat each chord as many times as necessary) 
   E                  C# 
e|----------------------------------------| 
B|----------------------------------------| 
G|----------------------------------------| 
D|-14-------14--------11------16--14------| 
A|-14-------12--------11------14--14------| 
E|--0--------0---------9-------0---0------| 

Verse (Pretty much same thing with the first chord played in the first octave) 
   E                  C# (Live he plays it on the 4th fret of A string) 
e|----------------------------------------| 
B|----------------------------------------| 
G|-1--------------------------------------| 
D|-2-------14---------11-------16--14-----| 
A|-2-------12---------11-------14--14-----| 
E|-0--------0----------9--------0---0-----| 

Chorus (All power chords) 
F#                 C#               B          E        A                  B               C# 
    remember that night you were already in bed, said "f*** it" got up to drink with me instead! 

Synth/Guitar part played during Bridge. (Other guitar plays main riff) 

e|--14--------11-------16--14---| 
B|------------------------------| 
G|------------------------------| 
D|------------------------------| 
A|------------------------------| 
E|------------------------------| 

Bridge Pt. 2 (Play each chord as many times as necessary) 

e|-12--11---11-12--| 
B|-12--12---12-12--| 
G|-----------------| 
D|-----------------| 
A|-----------------| 
E|--0---0---12-12--| 

e|----------------------| 
B|----------------------| 
G|-13--------11--9------| 
D|-----13---------------| 
A|-11--11----7---7------| 
E|----------------------| 

Bridge Pt. 3 

  F#  C#   B   E      A 
e|-------------0------5-| 
B|-------------0------5-| 
G|-------------1------6-| 
D|-4--11---9---2------7-| 
A|-4--11---9---2------7-| 
E|-2---9---7---0------5-| 

 
		  

Full key step upFull key step up
Half key step upHalf key step up
Half key step downHalf key step down
Full key step downFull key step down
auto scroll beats size up size down change color hide chords drawings
tab show chords e-chords YouTube Clip e-chords hide all tabs e-chords go to top tab

share