Japandroids

The Nights Of Wine And Roses

Japandroids

tabs

by  TERR_SCHMITZ

save to print version add songbook text version e-mail correct tuner
chordsukulelecavacokeyboardtabbassdrumsharmonicaflute Guitar Pro
close

there isn't a video lesson for this song

chords

The Nights Of Wine And Roses

	  		
Intro A 

(crescendo w/ feedback) 

e|------------------------------------------------------------| 
B|------------------------------------------------------------| 
G|------------------------------------------------------------| 
D|------------------------------------------------------------| 
A|------------------------------------------------------------| 
E|--0~--------------------------------------------------------| 


Intro B 

e|----------------------------5-5-5-5-5-5-5-5-5-5-5-5-5-5-5-5-5-5-5-| 
B|--9-9-9-9-9-9-9-9-9-9-9-9-9-5-5-5-5-5-5-5-5-5-5-5-5-5-5-5-5-5-5-5-| 
G|--9-9-9-9-9-9-9-9-9-9-9-9-9-7-7-7-6-6-6-6-6-6-6-6-6-7-7-7-7-7-7-7-| 
D|------------------------------------------------------------------| 
A|------------------------------------------------------------------| 
E|------------------------------------------------------------------| 

e|----------------------------5-5-5-5-5-5-5-5-5-5-5-5-5-------------| 
B|--9-9-9-9-9-9-9-9-9-9-9-9-9-5-5-5-5-5-5-5-5-5-5-5-5-5-7-7-7-7-7-7-| 
G|--9-9-9-9-9-9-9-9-9-9-9-9-9-7-7-7-6-6-6-7-7-7-7-7-7-7-9-9-9-9-9-9-| 
D|------------------------------------------------------------------| 
A|------------------------------------------------------------------| 
E|------------------------------------------------------------------| 


Verse 

(Intro B is played over the verse on studio recording) 
                                                        
e|-0-----0-0-0--0-----0-0-0-0--0-----0-0-0--0-0---0-0-0-0-----------------| 
B|-0-----3-3-3--2-----0-3-3-3--0-----3-3-3--2-3---0-3-3-3-----------------| 
G|-1-----2-2-2--2-----2-2-2-2--1-----2-2-2--2-2---2-2-2-2-----------------|   x4 
D|-2-----0-0-0--2-----2-2-2-2--2-----0-0-0--2-2---2-2-2-2-----------------| 
A|-2------------0-----0-0-0-0--2------------0-0---0-0-0-0-----------------| 
E|-0---------------------------0------------------------------------------| 

(for 3rd and 4th repeats: strum constantly and use pinky to add pull offs from 2nd fret to open) 
(high e string where it sounds good) 


Chorus 
                                 x4 
e|-----0---0--0--0--0-------0--0---|---0---------| 
B|-----0---0--0--0--0-------0--0---|---0---------| 
G|-----1---2--6--4--2-------2--1---|---2---2-----| 
D|-----2---2--6--4--2-------4--2---|---4---0-----| 
A|-----2---0--4--2--0-------0--2---|---0---0-----| 
E|-----0---0--4--2--0-------2--0---|---2---------| 
                            (use thumb for low E fret 2) 

                                                         
Outro 

(continuously tremolo pick all notes) 
(notes in brackets can also be tremolo picked lightly if you like) 

                            x2 
e|---7----9----10----12---------------------------------------| 
B|---(0)-------(0)--------------------------------------------| 
G|-------------------(0)--------------------------------------| 
D|------------------------------------------------------------| 
A|------------------------------------------------------------| 
E|------------------------------------------------------------| 

e|----14------------------------------------------------------| 
B|----(0)-----------------------------------------------------| 
G|------------------------------------------------------------| 
D|------------------------------------------------------------| 
A|------------------------------------------------------------| 
E|------------------------------------------------------------| 

e|---16-----17-----19----21-----------------------------------| 
B|---(0)----(15)---(15)--(15)---------------------------------| 
G|------------------------------------------------------------| 
D|------------------------------------------------------------| 
A|------------------------------------------------------------| 
E|------------------------------------------------------------| 

     let ring 
e|---0--------------------------------------------------------| 
B|---0--------------------------------------------------------| 
G|---1--------------------------------------------------------| 
D|---2--------------------------------------------------------| 
A|---2--------------------------------------------------------| 
E|---0--------------------------------------------------------| 


*********************************** 
|(n)  Ghost note  
| ~   Vibrato 
*********************************** 
		  

Full key step upFull key step up
Half key step upHalf key step up
Half key step downHalf key step down
Full key step downFull key step down
auto scroll beats size up size down change color hide chords drawings
tab show chords e-chords YouTube Clip e-chords hide all tabs e-chords go to top tab

share