Janet Jackson

Someone To Call My Lover

Janet Jackson

tabs Beginner beginner

save to print version add songbook text version e-mail correct tuner
chordsukulelecavacokeyboardtabbassdrumsharmonicaflute Guitar Pro
close

there isn't a video lesson for this song

chords

Someone To Call My Lover

Year: 2001 - Album: All for You

	  		Transcibed by:  Talan H. 
Tuning: Standard 
Please rate this tab.  Any question email me at [email protected]  
 
Only riff 
E?5h7h5-----------------5h7h5----------------- 
B-------7-5h7h5---------------7-5h7h5--------- 
G---------------7-6h7-6---------------7-6h7-7- 
D--------------------------------------------- 
A--------------------------------------------- 
E--------------------------------------------- 
 
E?5h7h5-----------------5h7h5----------------- 
B-------7-5h7h5---------------7-5h7h5--------- 
G---------------7-6h7-6---------------7-6h7-7- 
D--------------------------------------------- 
A--------------------------------------------- 
E--------------------------------------------- 
 
Just keep repeating this throughout the whole song 
 

		  

See also:

tabs John Mayer - Neon tabs Van Halen - Pretty Woman tabs Simon & Garfunkel - Sounds of silence tabs The Strokes - Juicebox tabs Rage Against The Machine - Killing In The Name tabs Aerosmith - Dream On
e-chords

Other versions:

tabs Janet Jackson - Someone To Call My Lover
auto scroll beats size up size down change color hide chords drawings
tab show chords e-chords YouTube Clip e-chords hide all tabs e-chords go to top tab

share