Janes Addiction

Three Days

Janes Addiction

tabs Beginner beginner

save to print version add songbook text version e-mail correct tuner
chordsukulelecavacokeyboardtabbassdrumsharmonicaflute Guitar Pro
close

there isn't a video lesson for this song

chords

Three Days

Year: 1990 - Album: Ritual de lo Habitual

	  		key: 
by the way im not gonna try and write hammerons and pull offs  
^:bend up 
( ): bend to the note in brackets 
V: bring the bend back down 
/:slide 
First solo:    Please rate and comments!! 
 
 
-------------------------------------------- 
10--9---10--12----15--14---15--17----14^(15)v 
-------------------------------------------- 
-------------------------------------------- 
-------------------------------------------- 
-------------------------------------------- 
 
--------------------------------------------- 
12------------------------------------------- 
-------14-----13-----14--13------------------ 
----------------------------14---12-----12--- 
--------------------------------------------- 
--------------------------------------------- 
 
--------------------------------------------- 
--------------------------------------------- 
14--13-------------13-------14--13----------- 
-------12--14----------------------12---12--- 
--------------------------------------------- 
--------------------------------------------- 
 
--------------------------------------------- 
--------------------------------------------- 
--------------------------------------------- 
11--12--11--------11------------------------- 
---------------14----12--14--11--11---------- 
--------------------------------------12---10 
 
--------------------------------------------- 
--------------------------------------------- 
--------------------------12--11------11----- 
-----------------------12---------14------12- 
-----------10--12--14------------------------ 
---10--12------------------------------------ 
 
-----------------------------12---17-------- 
-------------12--15--14--15----------------- 
-----12--14--------------------------------- 
-14----------------------------------------- 
-------------------------------------------- 
-------------------------------------------- 
 
--16--------14-17-14----14--12--------------- 
---------------------15---------15--14--12--- 
--------------------------------------------- 
--------------------------------------------- 
--------------------------------------------- 
--------------------------------------------- 
 
--------------------------------------------- 
------------12--15--15--14^(15)v----14^(15)v- 
14--12--13----------------------------------- 
--------------------------------------------- 
--------------------------------------------- 
--------------------------------------------- 
 
--------------------------------------------- 
--------------------------------------------- 
---12----------14---14---14-------13--------- 
----------14--hold-------------14---14-14---- 
--------------------------------------------- 
--------------------------------------------- 
 
------------------16--17--19--16--17--19--16- 
--------------------------------------------- 
14------13--14------------------------------- 
-----14-------------------------------------- 
--------------------------------------------- 
--------------------------------------------- 
 
17--19--16--17--19--16--17--19----17----16--- 
--------------------------------------------- 
--------------------------------------------- 
--------------------------------------------- 
--------------------------------------------- 
--------------------------------------------- 
 
-14-----------14------16--17--19--16--17--19- 
--------------------------------------------- 
--------------------------------------------- 
--------------------------------------------- 
--------------------------------------------- 
--------------------------------------------- 
 
16--17--19--16--17--19--16--17--19------17--- 
--------------------------------------------- 
--------------------------------------------- 
--------------------------------------------- 
--------------------------------------------- 
--------------------------------------------- 
 
---16-----14---------------14------- 
------------------------------------ 
------------------------------------ 
------------------------------------ 
------------------------------------ 
------------------------------------ 
 
15--14--12----------------------------------- 
------------15--14--12----------------------- 
------------------------14--12--11----------- 
-----------------------------------14--12--11 
--------------------------------------------- 
--------------------------------------------- 
 
---------------------------------------- 
---------------------------------------- 
---------------------------------------- 
---------------------------------------- 
-12---------11-------------------------- 
------------------12-----10------------- 
 
--------------------------------------------- 
--------------------------------------------- 
-14^(16)v-----12-----11---------11-12-11----- 
-----------------------------------------14-- 
--------------------------------------------- 
--------------------------------------------- 
 
------------------------------------------- 
------------------------------------------- 
-11---------------------------------------- 
-----12--14--11--12------11---------------- 
---------------------14------12--14--12---- 
------------------------------------------- 
 
------------------------------------ 
------------------------------------ 
------------------------------------ 
------------------------------------ 
-11--------------------------------- 
--------12------10------12---------- 
 
--10--7----------------------------- 
---------8--7----------------------- 
---------------9^(11)---9-H--------- 
------------------------------------ 
------------------------------------ 
------------------------------------ 
 
-10--7------------------------------ 
--------8--7------------------------ 
--------------9--^(11)v-------7----- 
------------------------------------ 
------------------------------------ 
------------------------------------ 
 
--10--7----------------------------- 
---------8--7----------------------- 
---------------9^(11)v-------------- 
------------------------------------ 
------------------------------------ 
------------------------------------ 
 
-------------------------------------------- 
-------------------------------------------- 
7-9-7-6-----/7-----/4-----/2-----/6---/4-hold 
-------------------------------------------- 
-------------------------------------------- 
-------------------------------------------- 
 
note:during this part, when playing each note, dave increases 
and decreases the vol on his guitar. 
 
 
-------------------------------------- 
-------------------------------------- 
-2---------4---------2---------1---hold 
-------------------------------------- 
-------------------------------------- 
-------------------------------------- 
 
------------------------------------------- 
------------------------------------------- 
-12----------------------------11----------- 
------------------------------------12-hold 
------------------------------------------- 
------------------------------------------- 
 
-------------------------------------------- 
-------------------------------------------- 
-12-------------------14-------------------- 
-------------------------------------------- 
-------------------------------------------- 
-------------------------------------------- 
 
-------------------------------------------- 
-------------------------------------------- 
-13--14--13---------------14---------------- 
-------------------------------------------- 
-------------------------------------------- 
-------------------------------------------- 
 
--------------------------------------------- 
--------------------------------------------- 
-12--14----^14------------^14---^14---^14---- 
--------------------------------------------- 
--------------------------------------------- 
--------------------------------------------- 
  ^use whammy bar 
 
 
 
---------------------12--14--15-----15----- 
---------12--14--15------------------------ 
-13--14------------------------------------ 
------------------------------------------- 
------------------------------------------- 
------------------------------------------- 
 
-14-15-14-12-----14--12----------12---------- 
-------------15----------15--14------15--14-- 
--------------------------------------------- 
--------------------------------------------- 
--------------------------------------------- 
--------------------------------------------- 
 
-------------------------------------------- 
12--15--14--12------14--12----------12------ 
----------------15----------15--14------15-- 
-------------------------------------------- 
-------------------------------------------- 
-------------------------------------------- 
 
-------------------------------------------- 
-------------------------------------------- 
14--12--14--12--11--12--11------11---------- 
----------------------------14------12--14-- 
-------------------------------------------- 
-------------------------------------------- 
 
------------------------------------ 
------------------------------------ 
------------------------------------ 
12--11------11---------------------- 
--------14----------14-------11----- 
------------------------------------ 
 
--------------------------------------------- 
--------------------------------------------- 
-11---12^(14)---11^(12)---12^(14)---11^(12)-- 
--------------------------------------------- 
--------------------------------------------- 
--------------------------------------------- 
 
--------------------------------------------- 
--------------------------------------------- 
-12^(14)-11^(12)-12^(14)---11^(12)---12^(14)- 
--------------------------------------------- 
--------------------------------------------- 
--------------------------------------------- 
 
----------------------------------- 
----------------------------------- 
--11^(12)---12^(14)-11^(12)-------- 
----------------------------------- 
----------------------------------- 
----------------------------------- 
 
---------------------------------------- 
12-15-12-----12-15-12-----12-15-12------ 
---------12-----------12-----------12--- 
---------------------------------------- 
---------------------------------------- 
---------------------------------------- 
 
-----------------------14-17-14------ 
12-15-12-----12----/15----------15--- 
---------12-------------------------- 
------------------------------------- 
------------------------------------- 
------------------------------------- 
/:slide to 
 
-14-17-14-----14-17-14-----14-17-14----14-| 
----------15-----------15-----------15----| 
------------------------------------------| 
------------------------------------------| 
------------------------------------------| 
------------------------------------------| 
 
repeat that section twice 
 
-16--17--19--16--17--19--16--17--19--16--17-- 
--------------------------------------------- 
--------------------------------------------- 
--------------------------------------------- 
--------------------------------------------- 
--------------------------------------------- 
 
19--17--16--14--17--16--14--12-------- 
----------------------------------15-- 
-------------------------------------- 
-------------------------------------- 
-------------------------------------- 
-------------------------------------- 
 
------------------------16--17--19--16--17-19 
14----------15-----14------------------------ 
--------------------------------------------- 
--------------------------------------------- 
--------------------------------------------- 
--------------------------------------------- 
 
--17--16--14--16--14--12--14--12------12-- 
----------------------------------15------ 
------------------------------------------ 
------------------------------------------ 
------------------------------------------ 
------------------------------------------ 
 
-------------------------------------- 
15--14--12---------------------------- 
------------14--12-----11------------- 
-------------------------------------- 
-------------------------------------- 
-------------------------------------- 
 
-------------------------------------------- 
-------------------------------------------- 
-12--11------------------------------------- 
---------14---------12--14--12-------11----- 
-------------------------------------------- 
-------------------------------------------- 
 
-------------------------------------------- 
-------------------------------------------- 
------------------------------------2---1--- 
--9-------7-------9------------------------- 
-------------------------------------------- 
-------------------------------------------- 
 
well thats the first solo completely. this took a long time to type up. 
 
 
the second complete solo for three days 
key: 
 
^:bend 
v:bring bend down 
(): bend to the note in () 
note: when you see this "15(17)" it means you dont bend up. you play the  
15th fret bent up to the 17th note. you don't play the string and then bend  
up, instead you bend the string without sounding the note, and then you play  
the note. 
 
 
---------------------------12--------------- 
-15^(17)-v--15^(17)----12-------15-^(17)-v-- 
-------------------------------------------- 
-------------------------------------------- 
-------------------------------------------- 
-------------------------------------------- 
 
----------------12------------------------ 
-15^(17)---12-------15-^(17)-v--15^(17)--- 
------------------------------------------ 
------------------------------------------ 
------------------------------------------ 
------------------------------------------ 
 
--------------15^(17)-----15---15(17)v---- 
-15(17)v-12------------------------------ 
----------------------------------------- 
----------------------------------------- 
----------------------------------------- 
----------------------------------------- 
 
-14-15-14-12--14--12------------------------ 
----------------------15--14-----15--14--12- 
-------------------------------------------- 
-------------------------------------------- 
-------------------------------------------- 
-------------------------------------------- 
 
-------------------------------------------- 
-----14--12--------------------------------- 
-15----------15--14--12--14--12--11--12--11- 
-------------------------------------------- 
-------------------------------------------- 
-------------------------------------------- 
 
--------------------------------------------- 
--------------------------------------------- 
-----11-------------------------------------- 
-14------12--11------11---------------------- 
-----------------14------12------12-----11--- 
--------------------------------------------- 
 
-------------------------------------------- 
-------------------------------------------- 
-------------------------------------------- 
----------11--12----11---------------------- 
--12--14------------------14------11--12--14 
-------------------------------------------- 
 
-------------------------------------------- 
-------------------------------------------- 
--------------11-12-11------11----------12-- 
--11--12--14------------14------12--14------ 
-------------------------------------------- 
-------------------------------------------- 
 
----------------------12----17-----16----16- 
------12--15--14--15------------------------ 
--14---------------------------------------- 
-------------------------------------------- 
-------------------------------------------- 
-------------------------------------------- 
 
--15----14----12-----------16---15-----14--- 
--------------------15---------------------- 
-------------------------------------------- 
-------------------------------------------- 
-------------------------------------------- 
-------------------------------------------- 
 
--12---------------------------------------- 
--------15------14----15^(17)-hold---------- 
------------------------------& pick a few-- 
------------------------------times--------- 
-------------------------------------------- 
-------------------------------------------- 
 
------------------------------------------- 
-15(17)v-----------------------14(15)v-12-- 
-----------12^slight bend------14(15)v-12-- 
----------------14----12--14--------------- 
------------------------------------------- 
------------------------------------------- 
 
--------------------------------------------- 
14^(15)v-12--14^(15)v-12--14^(15)v-12--14--12 
14^(15)v-12--14^(15)v-12--14^(15)v-12--14---- 
--------------------------------------------- 
--------------------------------------------- 
--------------------------------------------- 
 
-15-14-12-14-12----12---------------------- 
----------------15----15-14-15-14-12-14-12- 
------------------------------------------- 
------------------------------------------- 
------------------------------------------- 
------------------------------------------- 
 
-------------------------------------------- 
----12-------------------------------------- 
-14----14-12-14-12-11-12----11-------------- 
-----------------------------------14-----12 
-------------------------------------------- 
-------------------------------------------- 
 
-------------------------------------------- 
-------------------------------------------- 
-------------------------------------------- 
--12------11----12----12^(14)----12-----11-- 
-------------------------------------------- 
-------------------------------------------- 
 
-------------------------------------------- 
-------------------------------------------- 
-------------------------------------------- 
---12---11---------------------------------- 
-------------12-----------12----------12---- 
------------------10--10------10--10------10 
 
------------------------------------------- 
------------------------------------------- 
------------------------------------------- 
------------------------------------------- 
------11------------12----------12--------- 
--10--------10--10------10--10------10--10- 
 
-------------------------------------------- 
-------------------------------------------- 
-------------------------------------------- 
-------------------------------------------- 
--11------------12----------12----------11-- 
--------10--10------10--10------10--10------ 
 
--15--14--12-------------------------------- 
--------------15--14--12-------------------- 
--------------------------14--12--11-------- 
--------------------------------------14--12 
-------------------------------------------- 
-------------------------------------------- 
 
--------------------------------------------- 
--------------------------------------------- 
-----------------------------14^(16)v-12--13- 
--11----------------------------------------- 
------14-----11----12----14------------------ 
--------------------------------------------- 
 

		  

See also:

tabs Ozzy Osbourne - Paranoid (live) tabs Ozzy Osbourne - Crazy Train tabs Black Sabbath - War pigs (simplificada) tabs Iron Maiden - Brave New Word tabs Iron Maiden - Children of the Damned tabs Iron Maiden - Dream Of Mirrors
e-chords

Other versions:

tabs Janes Addiction - Three Days tabs Pat Green - Three Days tabs Janes Addiction - Three Days (ver. 2) tabs Three Days Grace - Three Days Grace - Just Like You tabs FM Static - Three Days Later
auto scroll beats size up size down change color hide chords drawings
tab show chords e-chords YouTube Clip e-chords hide all tabs e-chords go to top tab

share