Janes Addiction

The Riches

Janes Addiction

tabs

save to print version add songbook text version e-mail correct tuner
chordsukulelecavacokeyboardtabbassdrumsharmonicaflute Guitar Pro
close

there isn't a video lesson for this song

chords

The Riches

	  		Tabber: guitarlovinastrocreep 
tuning: Standard 
 
Intro (played very quietly) 
G|1-1-1-1-1-1-1-1-h3-3-3-3-0-0-0-0-0h5-5-5-5-3-3-3-2-2-2--0-0-0-0 
 
G|3p1-3p1---3p1---3p1----3p1----2p0------3---3 
 
Verse 1 
D|x-x-x-x-x-x-x-x 
A|x-x-x-x-x-x-x-x 
E|x-x-x-x-x-x-x-x- 
 
Bridge 1 
D|5----------------5 
A|5----------------5 
E|3----------------3 
 
Refrain 
D|5-5-5-5--7-7-7-7--9-9-9-9--3-3-3-3 
A|5-5-5-5--7-7-7-7--9-9-9-9--3-3-3-3 
E|3-3-3-3--5-5-5-5--7-7-7-7--1-1-1-1 
 
Verse 2 
G|0-x-x-x-x-x-3-0-x-x-x-x-x-0-x-x-x-x-x-3-0 
 
Bridge 2 
G|-----3--5------- 
D|5--------------5 
A|5--------------5 
E|3--------------3 
 
Refrain 
 
Interlude 
D|7-7-7-7-7-7 
A|7-7-7-7-7-7         x4 
E|5-5-5-5-5-5 
 
Solo (No Idea) 
 
Bridge 3 
G|------3-5----3-3-5-5-3-3-3-5-5-------3-5---- 
D|5----------5--------------------5----------5 
A|5----------5--------------------5----------5 
E|3----------3--------------------3----------3 
 
Refrain 
 
"O...There you are..." 
G|---5-7-5-3-7----5-7-5-3-9 
D|9-------------9---------- 
A|9-------------9---------- 
E|7-------------7---------- 
 
Outro: 
G|5-----5----3------5-----5-----3 
 
This TAB is probably wrong but I wanted to give it a shot. 
 
Peace 
 

		  

See also:

tabs Iron Maiden - Wasting Love (ver. 2) tabs Ozzy Osbourne - Paranoid (live) tabs Iron Maiden - Children of the Damned tabs Iron Maiden - Can I Play with Madness tabs Iron Maiden - Wasting love (solo) tabs Black Sabbath - Iron Man (Intro e Riff)
e-chords

Other versions:

tabs Janes Addiction - The Riches
auto scroll beats size up size down change color hide chords drawings
tab show chords e-chords YouTube Clip e-chords hide all tabs e-chords go to top tab

share