Janes Addiction

My Cats Name Is Maceo

Janes Addiction

tabs

save to print version add songbook text version e-mail correct tuner
chordsukulelecavacokeyboardtabbassdrumsharmonicaflute Guitar Pro
close

there isn't a video lesson for this song

chords

My Cats Name Is Maceo

	  		My Cat's Name Is Maceo 
Jane's Addiction 
Kettle Whistle 
Tabbed By: George 
 
 Guitar comes in... 
E-----------------| 
B-----------------| 
G--7--5-----------| 
D--8--6-----------| 
A---------10-8-5--| 
E-----------------| 
 
E------------------------|-----------------| 
B------------------------|-----------------| 
G--7-7---8-----9-9-10-10-|--7--5-----------| 
D--8---8-8---8-8-8-8--8--|--8--6-----------| 
A--8---------------------|---------6-8-----| 
E------------------------|-------------6---| 
 
 This is the verse riff:             (1/4 bend) 
E------------------------|-----------------| 
B------------------------|-----------------| 
G:-7-7---8-----9-9-10-10-|--7--5-----------| 
D:-8---8-8---8-8-8-8--8--|--8--6-----------| 
A--8---------------------|---------10b-8-5-| 
E------------------------|-----------------| 
 
E------------------------|-----------------| 
B------------------------|-----------------| 
G--7-7---8-----9-9-10-10-|--7--5----------:| repeat as needed 
D--8---8-8---8-8-8-8--8--|--8--6----------:| for the verses 
A--8---------------------|---------6-8-----| 
E------------------------|-------------6---| 
 
 For the chorus, strum this chord for three measures: 
E-----------------| 
B-----------------| 
G:-7--------------| 
D:-8--------------| 
A--8--------------| 
E-----------------| 
 -and then on the fourth measure of the chorus play: 
E-----------------| 
B--8-6-3----------| 
G--8-6-3---------:| 
D--8-6-3---------:| 
A--6-4-1----------| 
E-----------------| 
 
---------------------------------------------------------------------- 
For any comments or corrections email me at [email protected] 
 

		  

See also:

tabs Iron Maiden - Wasting Love (ver. 2) tabs Ozzy Osbourne - Paranoid (live) tabs Iron Maiden - Children of the Damned tabs Iron Maiden - Can I Play with Madness tabs Iron Maiden - Wasting love (solo) tabs Black Sabbath - Iron Man (Intro e Riff)
e-chords

Other versions:

tabs Janes Addiction - My Cats Name Is Maceo
auto scroll beats size up size down change color hide chords drawings
tab show chords e-chords YouTube Clip e-chords hide all tabs e-chords go to top tab

share